  0
SECTION
  2
HEADER
  9
$ACADVER
  1
AC1006
  9
$INSBASE
 10
0.0
 20
0.0
 30
0.0
  9
$EXTMIN
 10
     -422.500000
 20
      -96.000000
  9
$EXTMAX
 10
      282.023712
 20
      252.360550
  9
$LIMMIN
 10
     -422.500000
 20
      -96.000000
  9
$LIMMAX
 10
      282.023712
 20
      252.360550
  9
$VIEWCTR
 10
      -70.238144
 20
      -70.238144
  9
$ORTHOMODE
 70
     0
  9
$ANGBASE
 50
0.0
  9
$ANGDIR
 70
     0
  9
$SPLINETYPE
 70
     6
  9
$SPLINESEGS
 70
     8
9
$DIMASZ
 40
        6.000000
9
$DIMEXE
 40
        1.500000
9
$DIMEXO
 40
        2.500000
9
$DIMTXT
 40
        5.000000
9
$DIMGAP
 40
        1.500000
9
$DIMTAD
 70
1
9
$DIMTIH
 70
0
9
$DIMTOH
 70
0
  0
ENDSEC
  0
SECTION
  2
TABLES
  0
TABLE
  2
LTYPE
 70
     5
  0
LTYPE
  2
CONTINUOUS
 70
    64
  3
SOLID LINE
 72
    65
 73
     0
 40
0.0
  0
LTYPE
  2
DASHED
 70
    64
  3
-- -- -- -- -- --
 72
    65
 73
     2
 40
  0.75  
 49
  0.50  
 49
 -0.25  
  0
LTYPE
  2
DOT
 70
    64
  3
....................
 72
    65
 73
     2
 40
  0.25  
 49
  0.02  
 49
 -0.23  
  0
LTYPE
  2
CENTER
 70
    64
  3
-- . -- . -- . -- .
 72
    65
 73
    4
 40
  2.00  
 49
  1.25  
 49
 -0.25  
 49
  0.25  
 49
 -0.25  
  0
LTYPE
  2
PHANTOM
 70
    64
  3
-- .. -- .. -- ..
 72
    65
 73
    6
 40
  2.50  
 49
  1.25  
 49
 -0.25  
 49
  0.25  
 49
 -0.25  
 49
  0.25  
 49
 -0.25  
  0
ENDTAB
  0
TABLE
  2
LAYER
 70
     1
  0
LAYER
  2
LVL0000
 70
    64
 62
     3
  6
CONTINUOUS
  0
ENDTAB
  0
TABLE
  2
STYLE
 70
     2
  0
STYLE
  2
STANDARD
 70
     0
 40
0.0
 41
1.0
 50
0.0
 71
     0
 42
5.0
  3
ROMANS
  4
BIGFONT
  0
STYLE
  2
BIGFONT
 70
     0
 40
0.0
 41
1.0
 50
0.0
 71
     0
 42
5.0
  3
ROMANS
  4
BIGFONT
  0
ENDTAB
  0
TABLE
  2
VIEW
 70
     0
  0
ENDTAB
  0
TABLE
  2
UCS
 70
     0
  0
ENDTAB
  0
TABLE
  2
DWGMGR
 70
     0
  0
ENDTAB
  0
ENDSEC
  0
SECTION
  2
BLOCKS
  0
ENDSEC
  0
SECTION
  2
ENTITIES
  0
LINE
  8
LVL0000
 10
     -116.500000
 20
      186.700556
 30
        0.000000
 11
      116.500000
 21
      186.700556
 31
        0.000000
  0
CIRCLE
  8
LVL0000
 10
      -11.000000
 20
      -75.800000
 30
        0.000000
 40
        6.000000
  0
CIRCLE
  8
LVL0000
 10
       11.000000
 20
      -75.800000
 30
        0.000000
 40
        6.000000
  0
CIRCLE
  8
LVL0000
 10
       33.000000
 20
      -75.800000
 30
        0.000000
 40
        6.000000
  0
ARC
  8
LVL0000
 10
     -115.500000
 20
       94.000000
 30
        0.000000
 40
        0.800000
 50
       90.000000
 51
      180.000010
  0
LINE
  8
LVL0000
 10
      115.500000
 20
       94.800000
 30
        0.000000
 11
     -115.500000
 21
       94.800000
 31
        0.000000
  0
ARC
  8
LVL0000
 10
      115.500000
 20
       94.000000
 30
        0.000000
 40
        0.800000
 50
        0.000000
 51
       90.000000
  0
LINE
  8
LVL0000
 10
     -115.500000
 20
      -94.800000
 30
        0.000000
 11
      115.500000
 21
      -94.800000
 31
        0.000000
  0
ARC
  8
LVL0000
 10
     -115.500000
 20
      -94.000000
 30
        0.000000
 40
        0.800000
 50
      180.000010
 51
      270.000000
  0
LINE
  8
LVL0000
 10
     -116.300000
 20
       94.000000
 30
        0.000000
 11
     -116.300000
 21
      -94.000000
 31
        0.000000
  0
LINE
  8
LVL0000
 10
      116.300000
 20
      -94.000000
 30
        0.000000
 11
      116.300000
 21
       94.000000
 31
        0.000000
  0
ARC
  8
LVL0000
 10
      115.500000
 20
      -94.000000
 30
        0.000000
 40
        0.800000
 50
      270.000000
 51
      360.000000
  0
LINE
  8
LVL0000
 10
       68.000000
 20
      -84.800000
 30
        0.000000
 11
       68.000000
 21
      -66.800000
 31
        0.000000
  0
ARC
  8
LVL0000
 10
       65.000000
 20
      -66.800000
 30
        0.000000
 40
        3.000000
 50
        0.000000
 51
       90.000000
  0
LINE
  8
LVL0000
 10
       65.000000
 20
      -63.800000
 30
        0.000000
 11
      -65.000000
 21
      -63.800000
 31
        0.000000
  0
ARC
  8
LVL0000
 10
      -65.000000
 20
      -66.800000
 30
        0.000000
 40
        3.000000
 50
       90.000000
 51
      180.000010
  0
LINE
  8
LVL0000
 10
      -68.000000
 20
      -66.800000
 30
        0.000000
 11
      -68.000000
 21
      -84.800000
 31
        0.000000
  0
ARC
  8
LVL0000
 10
      -65.000000
 20
      -84.800000
 30
        0.000000
 40
        3.000000
 50
      180.000010
 51
      270.000000
  0
LINE
  8
LVL0000
 10
      -65.000000
 20
      -87.800000
 30
        0.000000
 11
       65.000000
 21
      -87.800000
 31
        0.000000
  0
ARC
  8
LVL0000
 10
       65.000000
 20
      -84.800000
 30
        0.000000
 40
        3.000000
 50
      270.000000
 51
      360.000000
  0
CIRCLE
  8
LVL0000
 10
     -255.000000
 20
      -66.200000
 30
        0.000000
 40
        1.600000
  0
CIRCLE
  8
LVL0000
 10
     -276.000000
 20
      -66.200000
 30
        0.000000
 40
        1.600000
  0
CIRCLE
  8
LVL0000
 10
     -315.500000
 20
      -66.200000
 30
        0.000000
 40
        1.500000
  0
CIRCLE
  8
LVL0000
 10
     -315.500000
 20
      -66.200000
 30
        0.000000
 40
        1.000000
  0
CIRCLE
  8
LVL0000
 10
     -290.500000
 20
      -66.200000
 30
        0.000000
 40
        1.500000
  0
CIRCLE
  8
LVL0000
 10
     -290.500000
 20
      -66.200000
 30
        0.000000
 40
        1.000000
  0
ARC
  8
LVL0000
 10
     -200.700000
 20
      -82.800000
 30
        0.000000
 40
        5.000000
 50
      270.000000
 51
      360.000000
  0
LINE
  8
LVL0000
 10
     -200.700000
 20
      -87.800000
 30
        0.000000
 11
     -409.300000
 21
      -87.800000
 31
        0.000000
  0
LINE
  8
LVL0000
 10
     -195.700000
 20
      -82.800000
 30
        0.000000
 11
     -195.700000
 21
       82.800000
 31
        0.000000
  0
LINE
  8
LVL0000
 10
     -422.500000
 20
       94.000000
 30
        0.000000
 11
     -422.500000
 21
      -94.000000
 31
        0.000000
  0
LINE
  8
LVL0000
 10
     -189.500000
 20
      -96.000000
 30
        0.000000
 11
     -420.500000
 21
      -96.000000
 31
        0.000000
  0
LINE
  8
LVL0000
 10
     -189.500000
 20
      -95.000000
 30
        0.000000
 11
     -420.500000
 21
      -95.000000
 31
        0.000000
  0
ARC
  8
LVL0000
 10
     -420.500000
 20
      -94.000000
 30
        0.000000
 40
        1.000000
 50
      179.999990
 51
      270.000000
  0
ARC
  8
LVL0000
 10
     -420.500000
 20
       94.000000
 30
        0.000000
 40
        2.000000
 50
       90.000000
 51
      179.999990
  0
ARC
  8
LVL0000
 10
     -189.500000
 20
      -94.000000
 30
        0.000000
 40
        2.000000
 50
      270.000000
 51
      360.000000
  0
LINE
  8
LVL0000
 10
     -188.500000
 20
       94.000000
 30
        0.000000
 11
     -188.500000
 21
      -94.000000
 31
        0.000000
  0
ARC
  8
LVL0000
 10
     -189.500000
 20
      -94.000000
 30
        0.000000
 40
        1.000000
 50
      270.000000
 51
      360.000000
  0
ARC
  8
LVL0000
 10
     -189.500000
 20
       94.000000
 30
        0.000000
 40
        2.000000
 50
        0.000000
 51
       90.000000
  0
ARC
  8
LVL0000
 10
     -420.500000
 20
      -94.000000
 30
        0.000000
 40
        2.000000
 50
      179.999990
 51
      270.000000
  0
LINE
  8
LVL0000
 10
     -421.500000
 20
      -94.000000
 30
        0.000000
 11
     -421.500000
 21
       94.000000
 31
        0.000000
  0
ARC
  8
LVL0000
 10
     -189.500000
 20
      -94.000000
 30
        0.000000
 40
        1.000000
 50
      270.000000
 51
      360.000000
  0
ARC
  8
LVL0000
 10
     -189.500000
 20
       94.000000
 30
        0.000000
 40
        1.000000
 50
        0.000000
 51
       90.000000
  0
ARC
  8
LVL0000
 10
     -420.500000
 20
       94.000000
 30
        0.000000
 40
        1.000000
 50
       90.000000
 51
      179.999990
  0
LINE
  8
LVL0000
 10
     -402.800000
 20
       79.800000
 30
        0.000000
 11
     -402.800000
 21
       77.800000
 31
        0.000000
  0
LINE
  8
LVL0000
 10
     -402.800000
 20
      -76.800000
 30
        0.000000
 11
     -402.800000
 21
      -78.800000
 31
        0.000000
  0
LINE
  8
LVL0000
 10
     -207.200000
 20
       79.800000
 30
        0.000000
 11
     -207.200000
 21
      -78.800000
 31
        0.000000
  0
LINE
  8
LVL0000
 10
     -213.200000
 20
       85.800000
 30
        0.000000
 11
     -396.800000
 21
       85.800000
 31
        0.000000
  0
ARC
  8
LVL0000
 10
     -213.200000
 20
       79.800000
 30
        0.000000
 40
        6.000000
 50
        0.000000
 51
       90.000000
  0
ARC
  8
LVL0000
 10
     -396.800000
 20
       79.800000
 30
        0.000000
 40
        6.000000
 50
       90.000000
 51
      179.999990
  0
LINE
  8
LVL0000
 10
     -396.800000
 20
      -84.800000
 30
        0.000000
 11
     -213.200000
 21
      -84.800000
 31
        0.000000
  0
ARC
  8
LVL0000
 10
     -213.200000
 20
      -78.800000
 30
        0.000000
 40
        6.000000
 50
      270.000000
 51
      360.000000
  0
ARC
  8
LVL0000
 10
     -396.800000
 20
      -78.800000
 30
        0.000000
 40
        6.000000
 50
      179.999990
 51
      270.000000
  0
LINE
  8
LVL0000
 10
     -312.250000
 20
      -63.000000
 30
        0.000000
 11
     -312.250000
 21
      -62.200000
 31
        0.000000
  0
LINE
  8
LVL0000
 10
     -317.000000
 20
      -63.000000
 30
        0.000000
 11
     -312.250000
 21
      -63.000000
 31
        0.000000
  0
ARC
  8
LVL0000
 10
     -317.000000
 20
      -65.000000
 30
        0.000000
 40
        2.000000
 50
       90.000000
 51
      179.999990
  0
LINE
  8
LVL0000
 10
     -319.000000
 20
      -67.400000
 30
        0.000000
 11
     -319.000000
 21
      -65.000000
 31
        0.000000
  0
ARC
  8
LVL0000
 10
     -317.000000
 20
      -67.400000
 30
        0.000000
 40
        2.000000
 50
      179.999990
 51
      270.000000
  0
LINE
  8
LVL0000
 10
     -312.250000
 20
      -69.400000
 30
        0.000000
 11
     -317.000000
 21
      -69.400000
 31
        0.000000
  0
LINE
  8
LVL0000
 10
     -312.250000
 20
      -70.200000
 30
        0.000000
 11
     -312.250000
 21
      -69.400000
 31
        0.000000
  0
ARC
  8
LVL0000
 10
     -311.250000
 20
      -70.200000
 30
        0.000000
 40
        1.000000
 50
      179.999990
 51
      270.000000
  0
LINE
  8
LVL0000
 10
     -294.750000
 20
      -71.200000
 30
        0.000000
 11
     -311.250000
 21
      -71.200000
 31
        0.000000
  0
LINE
  8
LVL0000
 10
     -293.750000
 20
      -69.400000
 30
        0.000000
 11
     -293.750000
 21
      -70.200000
 31
        0.000000
  0
LINE
  8
LVL0000
 10
     -289.000000
 20
      -69.400000
 30
        0.000000
 11
     -293.750000
 21
      -69.400000
 31
        0.000000
  0
LINE
  8
LVL0000
 10
     -287.000000
 20
      -65.000000
 30
        0.000000
 11
     -287.000000
 21
      -67.400000
 31
        0.000000
  0
ARC
  8
LVL0000
 10
     -289.000000
 20
      -65.000000
 30
        0.000000
 40
        2.000000
 50
        0.000000
 51
       90.000000
  0
LINE
  8
LVL0000
 10
     -293.750000
 20
      -63.000000
 30
        0.000000
 11
     -289.000000
 21
      -63.000000
 31
        0.000000
  0
LINE
  8
LVL0000
 10
     -293.750000
 20
      -62.200000
 30
        0.000000
 11
     -293.750000
 21
      -63.000000
 31
        0.000000
  0
LINE
  8
LVL0000
 10
     -311.250000
 20
      -61.200000
 30
        0.000000
 11
     -294.750000
 21
      -61.200000
 31
        0.000000
  0
ARC
  8
LVL0000
 10
     -311.250000
 20
      -62.200000
 30
        0.000000
 40
        1.000000
 50
       90.000000
 51
      179.999990
  0
CIRCLE
  8
LVL0000
 10
     -276.000000
 20
      -66.200000
 30
        0.000000
 40
        5.000000
  0
CIRCLE
  8
LVL0000
 10
     -255.000000
 20
      -66.200000
 30
        0.000000
 40
        5.000000
  0
CIRCLE
  8
LVL0000
 10
     -238.000000
 20
      -66.200000
 30
        0.000000
 40
        6.500000
  0
ARC
  8
LVL0000
 10
     -294.750000
 20
      -62.200000
 30
        0.000000
 40
        1.000000
 50
        0.000000
 51
       90.000000
  0
ARC
  8
LVL0000
 10
     -289.000000
 20
      -67.400000
 30
        0.000000
 40
        2.000000
 50
      270.000000
 51
      360.000000
  0
ARC
  8
LVL0000
 10
     -294.750000
 20
      -70.200000
 30
        0.000000
 40
        1.000000
 50
      270.000000
 51
      360.000000
  0
ARC
  8
LVL0000
 10
     -197.200000
 20
       76.800000
 30
        0.000000
 40
        1.000000
 50
        0.000000
 51
       90.000000
  0
LINE
  8
LVL0000
 10
     -413.800000
 20
      -75.800000
 30
        0.000000
 11
     -413.800000
 21
       76.800000
 31
        0.000000
  0
LINE
  8
LVL0000
 10
     -402.800000
 20
       77.800000
 30
        0.000000
 11
     -402.800000
 21
      -76.800000
 31
        0.000000
  0
LINE
  8
LVL0000
 10
     -412.800000
 20
       77.800000
 30
        0.000000
 11
     -402.800000
 21
       77.800000
 31
        0.000000
  0
LINE
  8
LVL0000
 10
     -402.800000
 20
      -76.800000
 30
        0.000000
 11
     -412.800000
 21
      -76.800000
 31
        0.000000
  0
ARC
  8
LVL0000
 10
     -412.800000
 20
       76.800000
 30
        0.000000
 40
        1.000000
 50
       90.000000
 51
      179.999990
  0
ARC
  8
LVL0000
 10
     -412.800000
 20
      -75.800000
 30
        0.000000
 40
        1.000000
 50
      179.999990
 51
      270.000000
  0
LINE
  8
LVL0000
 10
     -207.200000
 20
       77.800000
 30
        0.000000
 11
     -197.200000
 21
       77.800000
 31
        0.000000
  0
LINE
  8
LVL0000
 10
     -197.200000
 20
      -76.800000
 30
        0.000000
 11
     -207.200000
 21
      -76.800000
 31
        0.000000
  0
LINE
  8
LVL0000
 10
     -196.200000
 20
       76.800000
 30
        0.000000
 11
     -196.200000
 21
      -75.800000
 31
        0.000000
  0
ARC
  8
LVL0000
 10
     -197.200000
 20
      -75.800000
 30
        0.000000
 40
        1.000000
 50
      270.000000
 51
      360.000000
  0
CIRCLE
  8
LVL0000
 10
     -238.000000
 20
      -66.200000
 30
        0.000000
 40
        5.500000
  0
CIRCLE
  8
LVL0000
 10
     -238.000000
 20
      -66.200000
 30
        0.000000
 40
        4.000000
  0
CIRCLE
  8
LVL0000
 10
     -255.000000
 20
      -66.200000
 30
        0.000000
 40
        4.150000
  0
CIRCLE
  8
LVL0000
 10
     -276.000000
 20
      -66.200000
 30
        0.000000
 40
        4.150000
  0
LINE
  8
LVL0000
 10
     -289.056625
 20
      -68.700000
 30
        0.000000
 11
     -287.613249
 21
      -66.200000
 31
        0.000000
  0
LINE
  8
LVL0000
 10
     -291.943376
 20
      -68.700000
 30
        0.000000
 11
     -289.056625
 21
      -68.700000
 31
        0.000000
  0
LINE
  8
LVL0000
 10
     -293.386752
 20
      -66.200000
 30
        0.000000
 11
     -291.943376
 21
      -68.700000
 31
        0.000000
  0
LINE
  8
LVL0000
 10
     -291.943376
 20
      -63.700000
 30
        0.000000
 11
     -293.386752
 21
      -66.200000
 31
        0.000000
  0
LINE
  8
LVL0000
 10
     -289.056625
 20
      -63.700000
 30
        0.000000
 11
     -291.943376
 21
      -63.700000
 31
        0.000000
  0
LINE
  8
LVL0000
 10
     -287.613249
 20
      -66.200000
 30
        0.000000
 11
     -289.056625
 21
      -63.700000
 31
        0.000000
  0
LINE
  8
LVL0000
 10
     -316.943376
 20
      -63.700000
 30
        0.000000
 11
     -318.386752
 21
      -66.200000
 31
        0.000000
  0
LINE
  8
LVL0000
 10
     -314.056625
 20
      -63.700000
 30
        0.000000
 11
     -316.943376
 21
      -63.700000
 31
        0.000000
  0
LINE
  8
LVL0000
 10
     -312.613249
 20
      -66.200000
 30
        0.000000
 11
     -314.056625
 21
      -63.700000
 31
        0.000000
  0
LINE
  8
LVL0000
 10
     -314.056625
 20
      -68.700000
 30
        0.000000
 11
     -312.613249
 21
      -66.200000
 31
        0.000000
  0
LINE
  8
LVL0000
 10
     -316.943376
 20
      -68.700000
 30
        0.000000
 11
     -314.056625
 21
      -68.700000
 31
        0.000000
  0
LINE
  8
LVL0000
 10
     -318.386752
 20
      -66.200000
 30
        0.000000
 11
     -316.943376
 21
      -68.700000
 31
        0.000000
  0
LINE
  8
LVL0000
 10
     -310.526509
 20
      -67.720944
 30
        0.000000
 11
     -311.086109
 21
      -64.547296
 31
        0.000000
  0
LINE
  8
LVL0000
 10
     -298.427915
 20
      -70.200000
 30
        0.000000
 11
     -307.572086
 21
      -70.200000
 31
        0.000000
  0
LINE
  8
LVL0000
 10
     -294.913892
 20
      -64.547296
 30
        0.000000
 11
     -295.473492
 21
      -67.720944
 31
        0.000000
  0
LINE
  8
LVL0000
 10
     -309.116493
 20
      -62.200000
 30
        0.000000
 11
     -296.883508
 21
      -62.200000
 31
        0.000000
  0
LINE
  8
LVL0000
 10
     -295.965896
 20
      -67.634120
 30
        0.000000
 11
     -295.406296
 21
      -64.460472
 31
        0.000000
  0
ARC
  8
LVL0000
 10
     -296.883508
 20
      -64.200000
 30
        0.000000
 40
        1.500000
 50
      350.000000
 51
      450.000000
  0
LINE
  8
LVL0000
 10
     -296.883508
 20
      -62.700000
 30
        0.000000
 11
     -309.116493
 21
      -62.700000
 31
        0.000000
  0
ARC
  8
LVL0000
 10
     -309.116493
 20
      -64.200000
 30
        0.000000
 40
        1.500000
 50
       90.000000
 51
      190.000010
  0
LINE
  8
LVL0000
 10
     -310.593705
 20
      -64.460472
 30
        0.000000
 11
     -310.034105
 21
      -67.634120
 31
        0.000000
  0
ARC
  8
LVL0000
 10
     -307.572086
 20
      -67.200000
 30
        0.000000
 40
        2.500000
 50
      190.000010
 51
      270.000000
  0
LINE
  8
LVL0000
 10
     -307.572086
 20
      -69.700000
 30
        0.000000
 11
     -298.427915
 21
      -69.700000
 31
        0.000000
  0
ARC
  8
LVL0000
 10
     -298.427915
 20
      -67.200000
 30
        0.000000
 40
        2.500000
 50
      270.000000
 51
      350.000000
  0
ARC
  8
LVL0000
 10
     -298.427915
 20
      -67.200000
 30
        0.000000
 40
        3.000000
 50
      270.000000
 51
      350.000000
  0
ARC
  8
LVL0000
 10
     -307.572086
 20
      -67.200000
 30
        0.000000
 40
        3.000000
 50
      190.000010
 51
      270.000000
  0
ARC
  8
LVL0000
 10
     -309.116493
 20
      -64.200000
 30
        0.000000
 40
        2.000000
 50
       90.000000
 51
      190.000010
  0
ARC
  8
LVL0000
 10
     -296.883508
 20
      -64.200000
 30
        0.000000
 40
        2.000000
 50
      350.000000
 51
      450.000000
  0
CIRCLE
  8
LVL0000
 10
     -255.000000
 20
      -66.200000
 30
        0.000000
 40
        3.650000
  0
CIRCLE
  8
LVL0000
 10
     -276.000000
 20
      -66.200000
 30
        0.000000
 40
        3.650000
  0
CIRCLE
  8
LVL0000
 10
     -238.000000
 20
      -66.200000
 30
        0.000000
 40
        3.000000
  0
LINE
  8
LVL0000
 10
     -415.300000
 20
      -82.800000
 30
        0.000000
 11
     -415.300000
 21
       82.800000
 31
        0.000000
  0
ARC
  8
LVL0000
 10
     -409.300000
 20
      -82.800000
 30
        0.000000
 40
        6.000000
 50
      179.999990
 51
      270.000000
  0
ARC
  8
LVL0000
 10
     -409.300000
 20
      -82.800000
 30
        0.000000
 40
        5.000000
 50
      179.999990
 51
      270.000000
  0
LINE
  8
LVL0000
 10
     -414.300000
 20
       82.800000
 30
        0.000000
 11
     -414.300000
 21
      -82.800000
 31
        0.000000
  0
CIRCLE
  8
LVL0000
 10
     -409.500000
 20
      -66.200000
 30
        0.000000
 40
        2.750000
  0
LINE
  8
LVL0000
 10
     -200.700000
 20
       88.800000
 30
        0.000000
 11
     -409.300000
 21
       88.800000
 31
        0.000000
  0
LINE
  8
LVL0000
 10
     -409.300000
 20
      -88.800000
 30
        0.000000
 11
     -200.700000
 21
      -88.800000
 31
        0.000000
  0
LINE
  8
LVL0000
 10
     -194.700000
 20
      -82.800000
 30
        0.000000
 11
     -194.700000
 21
       82.800000
 31
        0.000000
  0
ARC
  8
LVL0000
 10
     -200.700000
 20
       82.800000
 30
        0.000000
 40
        6.000000
 50
        0.000000
 51
       90.000000
  0
ARC
  8
LVL0000
 10
     -200.700000
 20
       82.800000
 30
        0.000000
 40
        5.000000
 50
        0.000000
 51
       90.000000
  0
ARC
  8
LVL0000
 10
     -200.700000
 20
      -82.800000
 30
        0.000000
 40
        6.000000
 50
      270.000000
 51
      360.000000
  0
LINE
  8
LVL0000
 10
     -409.300000
 20
       87.800000
 30
        0.000000
 11
     -200.700000
 21
       87.800000
 31
        0.000000
  0
CIRCLE
  8
LVL0000
 10
     -409.500000
 20
       73.300000
 30
        0.000000
 40
        2.750000
  0
CIRCLE
  8
LVL0000
 10
     -200.500000
 20
      -66.200000
 30
        0.000000
 40
        2.750000
  0
CIRCLE
  8
LVL0000
 10
     -200.500000
 20
       73.300000
 30
        0.000000
 40
        2.750000
  0
ARC
  8
LVL0000
 10
     -409.300000
 20
       82.800000
 30
        0.000000
 40
        5.000000
 50
       90.000000
 51
      179.999990
  0
ARC
  8
LVL0000
 10
     -409.300000
 20
       82.800000
 30
        0.000000
 40
        6.000000
 50
       90.000000
 51
      179.999990
  0
LINE
  8
LVL0000
 10
     -187.500000
 20
      -94.000000
 30
        0.000000
 11
     -187.500000
 21
       94.000000
 31
        0.000000
  0
LINE
  8
LVL0000
 10
      -81.500002
 20
      219.900558
 30
        0.000000
 11
      -81.500002
 21
      234.900558
 31
        0.000000
  0
LINE
  8
LVL0000
 10
      -80.500002
 20
      219.900558
 30
        0.000000
 11
      -80.500002
 21
      234.900558
 31
        0.000000
  0
LINE
  8
LVL0000
 10
      -86.500002
 20
      219.900558
 30
        0.000000
 11
      -86.500002
 21
      234.900558
 31
        0.000000
  0
LINE
  8
LVL0000
 10
      -87.500002
 20
      219.900558
 30
        0.000000
 11
      -87.500002
 21
      234.900558
 31
        0.000000
  0
ARC
  8
LVL0000
 10
      -81.000002
 20
      219.900558
 30
        0.000000
 40
        0.500000
 50
      180.000010
 51
      360.000000
  0
ARC
  8
LVL0000
 10
      -87.000002
 20
      219.900558
 30
        0.000000
 40
        0.500000
 50
      180.000010
 51
      360.000000
  0
LINE
  8
LVL0000
 10
       86.499998
 20
      219.900558
 30
        0.000000
 11
       86.499998
 21
      234.900558
 31
        0.000000
  0
LINE
  8
LVL0000
 10
       87.499998
 20
      219.900558
 30
        0.000000
 11
       87.499998
 21
      234.900558
 31
        0.000000
  0
LINE
  8
LVL0000
 10
       81.499998
 20
      219.900558
 30
        0.000000
 11
       81.499998
 21
      234.900558
 31
        0.000000
  0
LINE
  8
LVL0000
 10
       80.499998
 20
      219.900558
 30
        0.000000
 11
       80.499998
 21
      234.900558
 31
        0.000000
  0
ARC
  8
LVL0000
 10
       86.999998
 20
      219.900558
 30
        0.000000
 40
        0.500000
 50
      180.000010
 51
      360.000000
  0
ARC
  8
LVL0000
 10
       80.999998
 20
      219.900558
 30
        0.000000
 40
        0.500000
 50
      180.000010
 51
      360.000000
  0
CIRCLE
  8
LVL0000
 10
     -323.000000
 20
       31.800002
 30
        0.000000
 40
        2.000000
  0
CIRCLE
  8
LVL0000
 10
     -323.000000
 20
       31.800002
 30
        0.000000
 40
        1.500000
  0
CIRCLE
  8
LVL0000
 10
     -287.000000
 20
       31.800002
 30
        0.000000
 40
        2.000000
  0
CIRCLE
  8
LVL0000
 10
     -287.000000
 20
       31.800002
 30
        0.000000
 40
        1.500000
  0
CIRCLE
  8
LVL0000
 10
     -287.000000
 20
       -4.199998
 30
        0.000000
 40
        2.000000
  0
CIRCLE
  8
LVL0000
 10
     -287.000000
 20
       -4.199998
 30
        0.000000
 40
        1.500000
  0
CIRCLE
  8
LVL0000
 10
     -323.000000
 20
       -4.199998
 30
        0.000000
 40
        2.000000
  0
CIRCLE
  8
LVL0000
 10
     -323.000000
 20
       -4.199998
 30
        0.000000
 40
        1.500000
  0
LINE
  8
LVL0000
 10
      104.000002
 20
       81.350006
 30
        0.000000
 11
     -104.000002
 21
       81.350006
 31
        0.000000
  0
LINE
  8
LVL0000
 10
     -104.000002
 20
       81.350006
 30
        0.000000
 11
     -104.000002
 21
      -61.449998
 31
        0.000000
  0
LINE
  8
LVL0000
 10
      -86.000003
 20
       74.550002
 30
        0.000000
 11
       86.000003
 21
       74.550002
 31
        0.000000
  0
LINE
  8
LVL0000
 10
      -86.000003
 20
       74.550002
 30
        0.000000
 11
      -86.000003
 21
      -54.649994
 31
        0.000000
  0
LINE
  8
LVL0000
 10
       86.000003
 20
      -54.649994
 30
        0.000000
 11
       86.000003
 21
       74.550002
 31
        0.000000
  0
LINE
  8
LVL0000
 10
      104.000002
 20
      -61.449998
 30
        0.000000
 11
      104.000002
 21
       81.350006
 31
        0.000000
  0
LINE
  8
LVL0000
 10
       86.000003
 20
      -54.649994
 30
        0.000000
 11
      -86.000003
 21
      -54.649994
 31
        0.000000
  0
LINE
  8
LVL0000
 10
     -104.000002
 20
      -61.449998
 30
        0.000000
 11
      104.000002
 21
      -61.449998
 31
        0.000000
  0
CIRCLE
  8
LVL0000
 10
       55.000000
 20
      -69.799998
 30
        0.000000
 40
        2.000000
  0
LINE
  8
LVL0000
 10
      275.263704
 20
      -70.349999
 30
        0.000000
 11
      281.523704
 21
      -70.349999
 31
        0.000000
  0
LINE
  8
LVL0000
 10
      275.263704
 20
      -71.699999
 30
        0.000000
 11
      275.263704
 21
      -70.199999
 31
        0.000000
  0
LINE
  8
LVL0000
 10
      275.263704
 20
      -62.199999
 30
        0.000000
 11
      275.263704
 21
      -60.699999
 31
        0.000000
  0
LINE
  8
LVL0000
 10
      277.863704
 20
      -68.699999
 30
        0.000000
 11
      273.563704
 21
      -68.699997
 31
        0.000000
  0
LINE
  8
LVL0000
 10
      277.863704
 20
      -66.199999
 30
        0.000000
 11
      273.563704
 21
      -66.199997
 31
        0.000000
  0
LINE
  8
LVL0000
 10
      277.863704
 20
      -63.699999
 30
        0.000000
 11
      273.563704
 21
      -63.699997
 31
        0.000000
  0
LINE
  8
LVL0000
 10
      273.563704
 20
      -71.699997
 30
        0.000000
 11
      275.263704
 21
      -71.699999
 31
        0.000000
  0
LINE
  8
LVL0000
 10
      275.263704
 20
      -60.699999
 30
        0.000000
 11
      273.563704
 21
      -60.699997
 31
        0.000000
  0
LINE
  8
LVL0000
 10
      279.963704
 20
      -62.199999
 30
        0.000000
 11
      273.563704
 21
      -62.199997
 31
        0.000000
  0
LINE
  8
LVL0000
 10
      273.563704
 20
      -70.199997
 30
        0.000000
 11
      279.963704
 21
      -70.199999
 31
        0.000000
  0
LINE
  8
LVL0000
 10
      280.963704
 20
      -69.195599
 30
        0.000000
 11
      280.963704
 21
      -63.204398
 31
        0.000000
  0
ARC
  8
LVL0000
 10
      277.363704
 20
      -62.699999
 30
        0.000000
 40
        0.500000
 50
        0.000000
 51
       90.000000
  0
ARC
  8
LVL0000
 10
      277.363704
 20
      -69.699999
 30
        0.000000
 40
        0.500000
 50
      270.000000
 51
      360.000000
  0
LINE
  8
LVL0000
 10
      282.023704
 20
      -62.549999
 30
        0.000000
 11
      282.023704
 21
      -69.849999
 31
        0.000000
  0
LINE
  8
LVL0000
 10
      277.863704
 20
      -67.634119
 30
        0.000000
 11
      277.863704
 21
      -69.699999
 31
        0.000000
  0
LINE
  8
LVL0000
 10
      277.863704
 20
      -64.460471
 30
        0.000000
 11
      277.863704
 21
      -62.699999
 31
        0.000000
  0
LINE
  8
LVL0000
 10
      277.863704
 20
      -67.634119
 30
        0.000000
 11
      277.863704
 21
      -64.460471
 31
        0.000000
  0
ARC
  8
LVL0000
 10
      279.963704
 20
      -63.199999
 30
        0.000000
 40
        1.000000
 50
        0.000000
 51
       90.000000
  0
ARC
  8
LVL0000
 10
      279.963704
 20
      -69.199999
 30
        0.000000
 40
        1.000000
 50
      270.000000
 51
      360.000000
  0
ARC
  8
LVL0000
 10
      281.523704
 20
      -69.849999
 30
        0.000000
 40
        0.500000
 50
      270.000000
 51
      360.000000
  0
ARC
  8
LVL0000
 10
      281.523704
 20
      -62.549999
 30
        0.000000
 40
        0.500000
 50
        0.000000
 51
       90.000000
  0
LINE
  8
LVL0000
 10
      281.523704
 20
      -62.049999
 30
        0.000000
 11
      275.263704
 21
      -62.049999
 31
        0.000000
  0
LINE
  8
LVL0000
 10
      273.563704
 20
       79.800003
 30
        0.000000
 11
      273.563704
 21
      -80.799997
 31
        0.000000
  0
LINE
  8
LVL0000
 10
      247.363703
 20
      -84.800000
 30
        0.000000
 11
      269.563704
 21
      -84.799997
 31
        0.000000
  0
LINE
  8
LVL0000
 10
      247.363703
 20
       85.800000
 30
        0.000000
 11
      269.563704
 21
       85.800003
 31
        0.000000
  0
ARC
  8
LVL0000
 10
      269.563704
 20
      -80.799997
 30
        0.000000
 40
        4.000000
 50
      270.000000
 51
      360.000000
  0
ARC
  8
LVL0000
 10
      269.563704
 20
       81.800003
 30
        0.000000
 40
        4.000000
 50
        0.000000
 51
       90.000000
  0
LINE
  8
LVL0000
 10
      273.563704
 20
       79.800003
 30
        0.000000
 11
      273.563704
 21
       81.800003
 31
        0.000000
  0
LINE
  8
LVL0000
 10
        5.815969
 20
      248.200556
 30
        0.000000
 11
       -9.597364
 21
      248.200556
 31
        0.000000
  0
LINE
  8
LVL0000
 10
      -11.613248
 20
      248.200556
 30
        0.000000
 11
      -17.386751
 21
      248.200556
 31
        0.000000
  0
LINE
  8
LVL0000
 10
        7.613249
 20
      248.200556
 30
        0.000000
 11
       13.386752
 21
      248.200556
 31
        0.000000
  0
ARC
  8
LVL0000
 10
        5.616493
 20
      247.700556
 30
        0.000000
 40
        0.500000
 50
        0.000000
 51
       90.000000
  0
ARC
  8
LVL0000
 10
       -9.616492
 20
      247.700556
 30
        0.000000
 40
        0.500000
 50
       90.000000
 51
      180.000010
  0
ARC
  8
LVL0000
 10
      -53.649999
 20
      251.860556
 30
        0.000000
 40
        0.500000
 50
       90.000000
 51
      180.000010
  0
ARC
  8
LVL0000
 10
      -46.349999
 20
      251.860556
 30
        0.000000
 40
        0.500000
 50
        0.000000
 51
       90.000000
  0
ARC
  8
LVL0000
 10
      -32.649999
 20
      251.860556
 30
        0.000000
 40
        0.500000
 50
       90.000000
 51
      180.000010
  0
ARC
  8
LVL0000
 10
      -25.349999
 20
      251.860556
 30
        0.000000
 40
        0.500000
 50
        0.000000
 51
       90.000000
  0
LINE
  8
LVL0000
 10
      -70.999999
 20
      250.300556
 30
        0.000000
 11
      -70.999999
 21
      245.600556
 31
        0.000000
  0
LINE
  8
LVL0000
 10
      -62.999999
 20
      245.600556
 30
        0.000000
 11
      -62.999999
 21
      250.300556
 31
        0.000000
  0
ARC
  8
LVL0000
 10
      -63.999999
 20
      250.300556
 30
        0.000000
 40
        1.000000
 50
        0.000000
 51
       90.000000
  0
ARC
  8
LVL0000
 10
      -69.999999
 20
      250.300556
 30
        0.000000
 40
        1.000000
 50
       90.000000
 51
      180.000010
  0
LINE
  8
LVL0000
 10
      -72.499999
 20
      245.600556
 30
        0.000000
 11
      -61.499999
 21
      245.600556
 31
        0.000000
  0
LINE
  8
LVL0000
 10
      -45.849999
 20
      251.860556
 30
        0.000000
 11
      -54.149999
 21
      251.860556
 31
        0.000000
  0
LINE
  8
LVL0000
 10
      -46.349999
 20
      252.360556
 30
        0.000000
 11
      -53.649999
 21
      252.360556
 31
        0.000000
  0
LINE
  8
LVL0000
 10
      -24.849999
 20
      251.860556
 30
        0.000000
 11
      -33.149999
 21
      251.860556
 31
        0.000000
  0
LINE
  8
LVL0000
 10
      -25.349999
 20
      252.360556
 30
        0.000000
 11
      -32.649999
 21
      252.360556
 31
        0.000000
  0
LINE
  8
LVL0000
 10
      -70.999999
 20
      250.300556
 30
        0.000000
 11
      -62.999999
 21
      250.300556
 31
        0.000000
  0
LINE
  8
LVL0000
 10
      -69.999999
 20
      251.300556
 30
        0.000000
 11
      -64.017586
 21
      251.300556
 31
        0.000000
  0
LINE
  8
LVL0000
 10
        7.613249
 20
      248.200556
 30
        0.000000
 11
        7.613249
 21
      243.900557
 31
        0.000000
  0
LINE
  8
LVL0000
 10
        9.056625
 20
      248.200556
 30
        0.000000
 11
        9.056625
 21
      243.900557
 31
        0.000000
  0
LINE
  8
LVL0000
 10
       11.943376
 20
      248.200556
 30
        0.000000
 11
       11.943376
 21
      243.900557
 31
        0.000000
  0
LINE
  8
LVL0000
 10
       13.386752
 20
      248.200556
 30
        0.000000
 11
       13.386752
 21
      243.900557
 31
        0.000000
  0
LINE
  8
LVL0000
 10
      -11.613248
 20
      248.200556
 30
        0.000000
 11
      -11.613248
 21
      243.900557
 31
        0.000000
  0
LINE
  8
LVL0000
 10
      -13.056624
 20
      248.200556
 30
        0.000000
 11
      -13.056624
 21
      243.900557
 31
        0.000000
  0
LINE
  8
LVL0000
 10
      -15.943375
 20
      248.200556
 30
        0.000000
 11
      -15.943375
 21
      243.900557
 31
        0.000000
  0
LINE
  8
LVL0000
 10
      -17.386751
 20
      248.200556
 30
        0.000000
 11
      -17.386751
 21
      243.900557
 31
        0.000000
  0
LINE
  8
LVL0000
 10
      -10.086108
 20
      243.900557
 30
        0.000000
 11
      -10.086108
 21
      247.700556
 31
        0.000000
  0
LINE
  8
LVL0000
 10
        6.086109
 20
      247.700556
 30
        0.000000
 11
        6.086109
 21
      243.900557
 31
        0.000000
  0
LINE
  8
LVL0000
 10
      -10.116492
 20
      247.700556
 30
        0.000000
 11
      -10.116492
 21
      243.900557
 31
        0.000000
  0
LINE
  8
LVL0000
 10
        6.116493
 20
      243.900557
 30
        0.000000
 11
        6.116493
 21
      247.700556
 31
        0.000000
  0
LINE
  8
LVL0000
 10
      -45.849999
 20
      243.900557
 30
        0.000000
 11
      -45.849999
 21
      251.860556
 31
        0.000000
  0
LINE
  8
LVL0000
 10
      -54.149999
 20
      251.860556
 30
        0.000000
 11
      -54.149999
 21
      243.900557
 31
        0.000000
  0
LINE
  8
LVL0000
 10
      -33.149999
 20
      251.860556
 30
        0.000000
 11
      -33.149999
 21
      243.900557
 31
        0.000000
  0
LINE
  8
LVL0000
 10
      -24.849999
 20
      243.900557
 30
        0.000000
 11
      -24.849999
 21
      251.860556
 31
        0.000000
  0
LINE
  8
LVL0000
 10
      -61.499999
 20
      243.900557
 30
        0.000000
 11
      -61.499999
 21
      245.600556
 31
        0.000000
  0
LINE
  8
LVL0000
 10
      -72.499999
 20
      245.600556
 30
        0.000000
 11
      -72.499999
 21
      243.900557
 31
        0.000000
  0
ARC
  8
LVL0000
 10
      -75.000002
 20
      219.900558
 30
        0.000000
 40
        0.500000
 50
      180.000010
 51
      360.000000
  0
ARC
  8
LVL0000
 10
      -69.000002
 20
      219.900558
 30
        0.000000
 40
        0.500000
 50
      180.000010
 51
      360.000000
  0
ARC
  8
LVL0000
 10
      -63.000002
 20
      219.900558
 30
        0.000000
 40
        0.500000
 50
      180.000010
 51
      360.000000
  0
ARC
  8
LVL0000
 10
      -57.000002
 20
      219.900558
 30
        0.000000
 40
        0.500000
 50
      180.000010
 51
      360.000000
  0
ARC
  8
LVL0000
 10
      -51.000002
 20
      219.900558
 30
        0.000000
 40
        0.500000
 50
      180.000010
 51
      360.000000
  0
ARC
  8
LVL0000
 10
      -45.000002
 20
      219.900558
 30
        0.000000
 40
        0.500000
 50
      180.000010
 51
      360.000000
  0
ARC
  8
LVL0000
 10
      -39.000002
 20
      219.900558
 30
        0.000000
 40
        0.500000
 50
      180.000010
 51
      360.000000
  0
ARC
  8
LVL0000
 10
      -33.000002
 20
      219.900558
 30
        0.000000
 40
        0.500000
 50
      180.000010
 51
      360.000000
  0
ARC
  8
LVL0000
 10
      -27.000002
 20
      219.900558
 30
        0.000000
 40
        0.500000
 50
      180.000010
 51
      360.000000
  0
ARC
  8
LVL0000
 10
      -21.000002
 20
      219.900558
 30
        0.000000
 40
        0.500000
 50
      180.000010
 51
      360.000000
  0
ARC
  8
LVL0000
 10
      -15.000002
 20
      219.900558
 30
        0.000000
 40
        0.500000
 50
      180.000010
 51
      360.000000
  0
ARC
  8
LVL0000
 10
       -9.000002
 20
      219.900558
 30
        0.000000
 40
        0.500000
 50
      180.000010
 51
      360.000000
  0
ARC
  8
LVL0000
 10
       -3.000002
 20
      219.900558
 30
        0.000000
 40
        0.500000
 50
      180.000010
 51
      360.000000
  0
ARC
  8
LVL0000
 10
        2.999998
 20
      219.900558
 30
        0.000000
 40
        0.500000
 50
      180.000010
 51
      360.000000
  0
ARC
  8
LVL0000
 10
        8.999998
 20
      219.900558
 30
        0.000000
 40
        0.500000
 50
      180.000010
 51
      360.000000
  0
ARC
  8
LVL0000
 10
       14.999998
 20
      219.900558
 30
        0.000000
 40
        0.500000
 50
      180.000010
 51
      360.000000
  0
ARC
  8
LVL0000
 10
       20.999998
 20
      219.900558
 30
        0.000000
 40
        0.500000
 50
      180.000010
 51
      360.000000
  0
ARC
  8
LVL0000
 10
       26.999998
 20
      219.900558
 30
        0.000000
 40
        0.500000
 50
      180.000010
 51
      360.000000
  0
ARC
  8
LVL0000
 10
       32.999998
 20
      219.900558
 30
        0.000000
 40
        0.500000
 50
      180.000010
 51
      360.000000
  0
ARC
  8
LVL0000
 10
       38.999998
 20
      219.900558
 30
        0.000000
 40
        0.500000
 50
      180.000010
 51
      360.000000
  0
ARC
  8
LVL0000
 10
       44.999998
 20
      219.900558
 30
        0.000000
 40
        0.500000
 50
      180.000010
 51
      360.000000
  0
ARC
  8
LVL0000
 10
       50.999998
 20
      219.900558
 30
        0.000000
 40
        0.500000
 50
      180.000010
 51
      360.000000
  0
ARC
  8
LVL0000
 10
       56.999998
 20
      219.900558
 30
        0.000000
 40
        0.500000
 50
      180.000010
 51
      360.000000
  0
ARC
  8
LVL0000
 10
       62.999998
 20
      219.900558
 30
        0.000000
 40
        0.500000
 50
      180.000010
 51
      360.000000
  0
ARC
  8
LVL0000
 10
       68.999998
 20
      219.900558
 30
        0.000000
 40
        0.500000
 50
      180.000010
 51
      360.000000
  0
ARC
  8
LVL0000
 10
       74.999998
 20
      219.900558
 30
        0.000000
 40
        0.500000
 50
      180.000010
 51
      360.000000
  0
ARC
  8
LVL0000
 10
      -75.000002
 20
      234.900558
 30
        0.000000
 40
        0.500000
 50
        0.000000
 51
      180.000010
  0
LINE
  8
LVL0000
 10
      -75.500002
 20
      219.900558
 30
        0.000000
 11
      -75.500002
 21
      234.900558
 31
        0.000000
  0
LINE
  8
LVL0000
 10
      -74.500002
 20
      219.900558
 30
        0.000000
 11
      -74.500002
 21
      234.900558
 31
        0.000000
  0
LINE
  8
LVL0000
 10
      -68.500002
 20
      219.900558
 30
        0.000000
 11
      -68.500002
 21
      234.900558
 31
        0.000000
  0
LINE
  8
LVL0000
 10
      -69.500002
 20
      219.900558
 30
        0.000000
 11
      -69.500002
 21
      234.900558
 31
        0.000000
  0
ARC
  8
LVL0000
 10
      -69.000002
 20
      234.900558
 30
        0.000000
 40
        0.500000
 50
        0.000000
 51
      180.000010
  0
ARC
  8
LVL0000
 10
      -63.000002
 20
      234.900558
 30
        0.000000
 40
        0.500000
 50
        0.000000
 51
      180.000010
  0
LINE
  8
LVL0000
 10
      -63.500002
 20
      219.900558
 30
        0.000000
 11
      -63.500002
 21
      234.900558
 31
        0.000000
  0
LINE
  8
LVL0000
 10
      -62.500002
 20
      219.900558
 30
        0.000000
 11
      -62.500002
 21
      234.900558
 31
        0.000000
  0
LINE
  8
LVL0000
 10
      -56.500002
 20
      219.900558
 30
        0.000000
 11
      -56.500002
 21
      234.900558
 31
        0.000000
  0
LINE
  8
LVL0000
 10
      -57.500002
 20
      219.900558
 30
        0.000000
 11
      -57.500002
 21
      234.900558
 31
        0.000000
  0
ARC
  8
LVL0000
 10
      -57.000002
 20
      234.900558
 30
        0.000000
 40
        0.500000
 50
        0.000000
 51
      180.000010
  0
ARC
  8
LVL0000
 10
      -51.000002
 20
      234.900558
 30
        0.000000
 40
        0.500000
 50
        0.000000
 51
      180.000010
  0
LINE
  8
LVL0000
 10
      -51.500002
 20
      219.900558
 30
        0.000000
 11
      -51.500002
 21
      234.900558
 31
        0.000000
  0
LINE
  8
LVL0000
 10
      -50.500002
 20
      219.900558
 30
        0.000000
 11
      -50.500002
 21
      234.900558
 31
        0.000000
  0
LINE
  8
LVL0000
 10
      -44.500002
 20
      219.900558
 30
        0.000000
 11
      -44.500002
 21
      234.900558
 31
        0.000000
  0
LINE
  8
LVL0000
 10
      -45.500002
 20
      219.900558
 30
        0.000000
 11
      -45.500002
 21
      234.900558
 31
        0.000000
  0
ARC
  8
LVL0000
 10
      -45.000002
 20
      234.900558
 30
        0.000000
 40
        0.500000
 50
        0.000000
 51
      180.000010
  0
ARC
  8
LVL0000
 10
      -39.000002
 20
      234.900558
 30
        0.000000
 40
        0.500000
 50
        0.000000
 51
      180.000010
  0
LINE
  8
LVL0000
 10
      -39.500002
 20
      219.900558
 30
        0.000000
 11
      -39.500002
 21
      234.900558
 31
        0.000000
  0
LINE
  8
LVL0000
 10
      -38.500002
 20
      219.900558
 30
        0.000000
 11
      -38.500002
 21
      234.900558
 31
        0.000000
  0
LINE
  8
LVL0000
 10
      -32.500002
 20
      219.900558
 30
        0.000000
 11
      -32.500002
 21
      234.900558
 31
        0.000000
  0
LINE
  8
LVL0000
 10
      -33.500002
 20
      219.900558
 30
        0.000000
 11
      -33.500002
 21
      234.900558
 31
        0.000000
  0
ARC
  8
LVL0000
 10
      -33.000002
 20
      234.900558
 30
        0.000000
 40
        0.500000
 50
        0.000000
 51
      180.000010
  0
ARC
  8
LVL0000
 10
      -27.000002
 20
      234.900558
 30
        0.000000
 40
        0.500000
 50
        0.000000
 51
      180.000010
  0
LINE
  8
LVL0000
 10
      -27.500002
 20
      219.900558
 30
        0.000000
 11
      -27.500002
 21
      234.900558
 31
        0.000000
  0
LINE
  8
LVL0000
 10
      -26.500002
 20
      219.900558
 30
        0.000000
 11
      -26.500002
 21
      234.900558
 31
        0.000000
  0
LINE
  8
LVL0000
 10
      -20.500002
 20
      219.900558
 30
        0.000000
 11
      -20.500002
 21
      234.900558
 31
        0.000000
  0
LINE
  8
LVL0000
 10
      -21.500002
 20
      219.900558
 30
        0.000000
 11
      -21.500002
 21
      234.900558
 31
        0.000000
  0
ARC
  8
LVL0000
 10
      -21.000002
 20
      234.900558
 30
        0.000000
 40
        0.500000
 50
        0.000000
 51
      180.000010
  0
ARC
  8
LVL0000
 10
      -15.000002
 20
      234.900558
 30
        0.000000
 40
        0.500000
 50
        0.000000
 51
      180.000010
  0
LINE
  8
LVL0000
 10
      -15.500002
 20
      219.900558
 30
        0.000000
 11
      -15.500002
 21
      234.900558
 31
        0.000000
  0
LINE
  8
LVL0000
 10
      -14.500002
 20
      219.900558
 30
        0.000000
 11
      -14.500002
 21
      234.900558
 31
        0.000000
  0
LINE
  8
LVL0000
 10
       -8.500002
 20
      219.900558
 30
        0.000000
 11
       -8.500002
 21
      234.900558
 31
        0.000000
  0
LINE
  8
LVL0000
 10
       -9.500002
 20
      219.900558
 30
        0.000000
 11
       -9.500002
 21
      234.900558
 31
        0.000000
  0
ARC
  8
LVL0000
 10
       -9.000002
 20
      234.900558
 30
        0.000000
 40
        0.500000
 50
        0.000000
 51
      180.000010
  0
ARC
  8
LVL0000
 10
       -3.000002
 20
      234.900558
 30
        0.000000
 40
        0.500000
 50
        0.000000
 51
      180.000010
  0
LINE
  8
LVL0000
 10
       -3.500002
 20
      219.900558
 30
        0.000000
 11
       -3.500002
 21
      234.900558
 31
        0.000000
  0
LINE
  8
LVL0000
 10
       -2.500002
 20
      219.900558
 30
        0.000000
 11
       -2.500002
 21
      234.900558
 31
        0.000000
  0
LINE
  8
LVL0000
 10
        3.499998
 20
      219.900558
 30
        0.000000
 11
        3.499998
 21
      234.900558
 31
        0.000000
  0
LINE
  8
LVL0000
 10
        2.499998
 20
      219.900558
 30
        0.000000
 11
        2.499998
 21
      234.900558
 31
        0.000000
  0
ARC
  8
LVL0000
 10
        2.999998
 20
      234.900558
 30
        0.000000
 40
        0.500000
 50
        0.000000
 51
      180.000010
  0
ARC
  8
LVL0000
 10
        8.999998
 20
      234.900558
 30
        0.000000
 40
        0.500000
 50
        0.000000
 51
      180.000010
  0
LINE
  8
LVL0000
 10
        8.499998
 20
      219.900558
 30
        0.000000
 11
        8.499998
 21
      234.900558
 31
        0.000000
  0
LINE
  8
LVL0000
 10
        9.499998
 20
      219.900558
 30
        0.000000
 11
        9.499998
 21
      234.900558
 31
        0.000000
  0
LINE
  8
LVL0000
 10
       15.499998
 20
      219.900558
 30
        0.000000
 11
       15.499998
 21
      234.900558
 31
        0.000000
  0
LINE
  8
LVL0000
 10
       14.499998
 20
      219.900558
 30
        0.000000
 11
       14.499998
 21
      234.900558
 31
        0.000000
  0
ARC
  8
LVL0000
 10
       14.999998
 20
      234.900558
 30
        0.000000
 40
        0.500000
 50
        0.000000
 51
      180.000010
  0
ARC
  8
LVL0000
 10
       20.999998
 20
      234.900558
 30
        0.000000
 40
        0.500000
 50
        0.000000
 51
      180.000010
  0
LINE
  8
LVL0000
 10
       20.499998
 20
      219.900558
 30
        0.000000
 11
       20.499998
 21
      234.900558
 31
        0.000000
  0
LINE
  8
LVL0000
 10
       21.499998
 20
      219.900558
 30
        0.000000
 11
       21.499998
 21
      234.900558
 31
        0.000000
  0
LINE
  8
LVL0000
 10
       27.499998
 20
      219.900558
 30
        0.000000
 11
       27.499998
 21
      234.900558
 31
        0.000000
  0
LINE
  8
LVL0000
 10
       26.499998
 20
      219.900558
 30
        0.000000
 11
       26.499998
 21
      234.900558
 31
        0.000000
  0
ARC
  8
LVL0000
 10
       26.999998
 20
      234.900558
 30
        0.000000
 40
        0.500000
 50
        0.000000
 51
      180.000010
  0
ARC
  8
LVL0000
 10
       32.999998
 20
      234.900558
 30
        0.000000
 40
        0.500000
 50
        0.000000
 51
      180.000010
  0
LINE
  8
LVL0000
 10
       32.499998
 20
      219.900558
 30
        0.000000
 11
       32.499998
 21
      234.900558
 31
        0.000000
  0
LINE
  8
LVL0000
 10
       33.499998
 20
      219.900558
 30
        0.000000
 11
       33.499998
 21
      234.900558
 31
        0.000000
  0
LINE
  8
LVL0000
 10
       39.499998
 20
      219.900558
 30
        0.000000
 11
       39.499998
 21
      234.900558
 31
        0.000000
  0
LINE
  8
LVL0000
 10
       38.499998
 20
      219.900558
 30
        0.000000
 11
       38.499998
 21
      234.900558
 31
        0.000000
  0
ARC
  8
LVL0000
 10
       38.999998
 20
      234.900558
 30
        0.000000
 40
        0.500000
 50
        0.000000
 51
      180.000010
  0
ARC
  8
LVL0000
 10
       44.999998
 20
      234.900558
 30
        0.000000
 40
        0.500000
 50
        0.000000
 51
      180.000010
  0
LINE
  8
LVL0000
 10
       44.499998
 20
      219.900558
 30
        0.000000
 11
       44.499998
 21
      234.900558
 31
        0.000000
  0
LINE
  8
LVL0000
 10
       45.499998
 20
      219.900558
 30
        0.000000
 11
       45.499998
 21
      234.900558
 31
        0.000000
  0
LINE
  8
LVL0000
 10
       51.499998
 20
      219.900558
 30
        0.000000
 11
       51.499998
 21
      234.900558
 31
        0.000000
  0
LINE
  8
LVL0000
 10
       50.499998
 20
      219.900558
 30
        0.000000
 11
       50.499998
 21
      234.900558
 31
        0.000000
  0
ARC
  8
LVL0000
 10
       50.999998
 20
      234.900558
 30
        0.000000
 40
        0.500000
 50
        0.000000
 51
      180.000010
  0
ARC
  8
LVL0000
 10
       56.999998
 20
      234.900558
 30
        0.000000
 40
        0.500000
 50
        0.000000
 51
      180.000010
  0
LINE
  8
LVL0000
 10
       56.499998
 20
      219.900558
 30
        0.000000
 11
       56.499998
 21
      234.900558
 31
        0.000000
  0
LINE
  8
LVL0000
 10
       57.499998
 20
      219.900558
 30
        0.000000
 11
       57.499998
 21
      234.900558
 31
        0.000000
  0
LINE
  8
LVL0000
 10
       63.499998
 20
      219.900558
 30
        0.000000
 11
       63.499998
 21
      234.900558
 31
        0.000000
  0
LINE
  8
LVL0000
 10
       62.499998
 20
      219.900558
 30
        0.000000
 11
       62.499998
 21
      234.900558
 31
        0.000000
  0
ARC
  8
LVL0000
 10
       62.999998
 20
      234.900558
 30
        0.000000
 40
        0.500000
 50
        0.000000
 51
      180.000010
  0
ARC
  8
LVL0000
 10
       68.999998
 20
      234.900558
 30
        0.000000
 40
        0.500000
 50
        0.000000
 51
      180.000010
  0
LINE
  8
LVL0000
 10
       68.499998
 20
      219.900558
 30
        0.000000
 11
       68.499998
 21
      234.900558
 31
        0.000000
  0
LINE
  8
LVL0000
 10
       69.499998
 20
      219.900558
 30
        0.000000
 11
       69.499998
 21
      234.900558
 31
        0.000000
  0
LINE
  8
LVL0000
 10
       75.499998
 20
      219.900558
 30
        0.000000
 11
       75.499998
 21
      234.900558
 31
        0.000000
  0
LINE
  8
LVL0000
 10
       74.499998
 20
      219.900558
 30
        0.000000
 11
       74.499998
 21
      234.900558
 31
        0.000000
  0
ARC
  8
LVL0000
 10
       74.999998
 20
      234.900558
 30
        0.000000
 40
        0.500000
 50
        0.000000
 51
      180.000010
  0
ARC
  8
LVL0000
 10
      -87.000002
 20
      234.900558
 30
        0.000000
 40
        0.500000
 50
        0.000000
 51
      179.999990
  0
ARC
  8
LVL0000
 10
      -81.000002
 20
      234.900558
 30
        0.000000
 40
        0.500000
 50
        0.000000
 51
      179.999990
  0
ARC
  8
LVL0000
 10
       80.999998
 20
      234.900558
 30
        0.000000
 40
        0.500000
 50
        0.000000
 51
      180.000010
  0
ARC
  8
LVL0000
 10
       86.999998
 20
      234.900558
 30
        0.000000
 40
        0.500000
 50
        0.000000
 51
      180.000010
  0
LINE
  8
LVL0000
 10
      -91.799999
 20
      243.900557
 30
        0.000000
 11
       93.800001
 21
      243.900557
 31
        0.000000
  0
LINE
  8
LVL0000
 10
      -93.799999
 20
      243.900557
 30
        0.000000
 11
      -91.799999
 21
      243.900557
 31
        0.000000
  0
ARC
  8
LVL0000
 10
       93.800001
 20
      239.900557
 30
        0.000000
 40
        4.000000
 50
        0.000000
 51
       90.000000
  0
ARC
  8
LVL0000
 10
      -93.799999
 20
      239.900557
 30
        0.000000
 40
        4.000000
 50
       90.000000
 51
      180.000010
  0
LINE
  8
LVL0000
 10
       97.800001
 20
      239.900557
 30
        0.000000
 11
       97.800000
 21
      217.700556
 31
        0.000000
  0
LINE
  8
LVL0000
 10
      -97.800000
 20
      217.700556
 30
        0.000000
 11
      -97.799999
 21
      239.900557
 31
        0.000000
  0
LINE
  8
LVL0000
 10
     -420.500000
 20
       95.000000
 30
        0.000000
 11
     -189.500000
 21
       95.000000
 31
        0.000000
  0
LINE
  8
LVL0000
 10
     -420.500000
 20
       96.000000
 30
        0.000000
 11
     -189.500000
 21
       96.000000
 31
        0.000000
  0
LINE
  8
LVL0000
 10
      116.300000
 20
      186.700556
 30
        0.000000
 11
      116.300000
 21
      186.400556
 31
        0.000000
  0
LINE
  8
LVL0000
 10
     -116.300000
 20
      186.700556
 30
        0.000000
 11
     -116.300000
 21
      186.400556
 31
        0.000000
  0
LINE
  8
LVL0000
 10
     -116.300000
 20
      186.400556
 30
        0.000000
 11
      116.300000
 21
      186.400556
 31
        0.000000
  0
LINE
  8
LVL0000
 10
     -117.500000
 20
      192.000556
 30
        0.000000
 11
      117.500000
 21
      192.000556
 31
        0.000000
  0
LINE
  8
LVL0000
 10
      110.300000
 20
      217.700556
 30
        0.000000
 11
       80.000000
 21
      217.700556
 31
        0.000000
  0
LINE
  8
LVL0000
 10
     -110.300000
 20
      217.700556
 30
        0.000000
 11
      -80.000000
 21
      217.700556
 31
        0.000000
  0
LINE
  8
LVL0000
 10
      216.363703
 20
       94.800000
 30
        0.000000
 11
      216.063703
 21
       94.800000
 31
        0.000000
  0
LINE
  8
LVL0000
 10
      216.363703
 20
      -94.800000
 30
        0.000000
 11
      216.063703
 21
      -94.800000
 31
        0.000000
  0
LINE
  8
LVL0000
 10
      216.063703
 20
      -94.800000
 30
        0.000000
 11
      216.063703
 21
       94.800000
 31
        0.000000
  0
LINE
  8
LVL0000
 10
      216.363703
 20
      -95.000000
 30
        0.000000
 11
      216.363703
 21
       95.000000
 31
        0.000000
  0
LINE
  8
LVL0000
 10
      221.663703
 20
      -96.000000
 30
        0.000000
 11
      221.663703
 21
       96.000000
 31
        0.000000
  0
LINE
  8
LVL0000
 10
      247.363703
 20
      -88.800000
 30
        0.000000
 11
      247.363703
 21
       88.800000
 31
        0.000000
  0
ARC
  8
LVL0000
 10
      -76.000000
 20
      209.700556
 30
        0.000000
 40
        2.000000
 50
      180.000010
 51
      270.000000
  0
LINE
  8
LVL0000
 10
       76.000000
 20
      207.700556
 30
        0.000000
 11
      -76.000000
 21
      207.700556
 31
        0.000000
  0
ARC
  8
LVL0000
 10
       76.000000
 20
      209.700556
 30
        0.000000
 40
        2.000000
 50
      270.000000
 51
      360.000000
  0
LINE
  8
LVL0000
 10
       78.000000
 20
      215.700556
 30
        0.000000
 11
       78.000000
 21
      209.700556
 31
        0.000000
  0
ARC
  8
LVL0000
 10
       80.000000
 20
      215.700556
 30
        0.000000
 40
        2.000000
 50
       90.000000
 51
      180.000010
  0
LINE
  8
LVL0000
 10
       89.000000
 20
      201.600556
 30
        0.000000
 11
       89.000000
 21
      206.400556
 31
        0.000000
  0
LINE
  8
LVL0000
 10
       89.000000
 20
      201.600556
 30
        0.000000
 11
      100.600000
 21
      201.600556
 31
        0.000000
  0
LINE
  8
LVL0000
 10
      100.600000
 20
      201.600556
 30
        0.000000
 11
      100.600000
 21
      206.400556
 31
        0.000000
  0
ARC
  8
LVL0000
 10
      -80.000000
 20
      215.700556
 30
        0.000000
 40
        2.000000
 50
        0.000000
 51
       90.000000
  0
LINE
  8
LVL0000
 10
      -78.000000
 20
      215.700556
 30
        0.000000
 11
      -78.000000
 21
      209.700556
 31
        0.000000
  0
LINE
  8
LVL0000
 10
      -89.000000
 20
      206.400556
 30
        0.000000
 11
      -89.000000
 21
      201.600556
 31
        0.000000
  0
LINE
  8
LVL0000
 10
      -89.000000
 20
      201.600556
 30
        0.000000
 11
     -100.600000
 21
      201.600556
 31
        0.000000
  0
LINE
  8
LVL0000
 10
     -100.600000
 20
      201.600556
 30
        0.000000
 11
     -100.600000
 21
      206.400556
 31
        0.000000
  0
LINE
  8
LVL0000
 10
     -100.600000
 20
      206.400556
 30
        0.000000
 11
      -89.000000
 21
      206.400556
 31
        0.000000
  0
LINE
  8
LVL0000
 10
       89.000000
 20
      206.400556
 30
        0.000000
 11
      100.600000
 21
      206.400556
 31
        0.000000
  0
LINE
  8
LVL0000
 10
     -117.500000
 20
      187.700556
 30
        0.000000
 11
     -117.500000
 21
      192.000556
 31
        0.000000
  0
LINE
  8
LVL0000
 10
      117.500000
 20
      187.700556
 30
        0.000000
 11
      117.500000
 21
      192.000556
 31
        0.000000
  0
ARC
  8
LVL0000
 10
     -116.500000
 20
      187.700556
 30
        0.000000
 40
        1.000000
 50
      180.000010
 51
      270.000000
  0
ARC
  8
LVL0000
 10
      116.500000
 20
      187.700556
 30
        0.000000
 40
        1.000000
 50
      270.000000
 51
      360.000000
  0
LINE
  8
LVL0000
 10
      110.300000
 20
      217.700556
 30
        0.000000
 11
      110.300000
 21
      192.000556
 31
        0.000000
  0
LINE
  8
LVL0000
 10
     -110.300000
 20
      217.700556
 30
        0.000000
 11
     -110.300000
 21
      192.000556
 31
        0.000000
  0
LINE
  8
LVL0000
 10
      247.363703
 20
      -88.800000
 30
        0.000000
 11
      221.663703
 21
      -88.800000
 31
        0.000000
  0
LINE
  8
LVL0000
 10
      221.663703
 20
       88.800000
 30
        0.000000
 11
      247.363703
 21
       88.800000
 31
        0.000000
  0
ARC
  8
LVL0000
 10
      217.363703
 20
      -95.000000
 30
        0.000000
 40
        1.000000
 50
      180.000010
 51
      270.000000
  0
ARC
  8
LVL0000
 10
      217.363703
 20
       95.000000
 30
        0.000000
 40
        1.000000
 50
       90.000000
 51
      180.000010
  0
LINE
  8
LVL0000
 10
      217.363703
 20
      -96.000000
 30
        0.000000
 11
      221.663703
 21
      -96.000000
 31
        0.000000
  0
LINE
  8
LVL0000
 10
      221.663703
 20
       96.000000
 30
        0.000000
 11
      217.363703
 21
       96.000000
 31
        0.000000
  0
ARC
  8
LVL0000
 10
     -115.500000
 20
       94.000000
 30
        0.000000
 40
        2.000000
 50
       90.000000
 51
      180.000010
  0
ARC
  8
LVL0000
 10
     -115.500000
 20
      -94.000000
 30
        0.000000
 40
        2.000000
 50
      180.000010
 51
      270.000000
  0
ARC
  8
LVL0000
 10
      115.500000
 20
      -94.000000
 30
        0.000000
 40
        2.000000
 50
      270.000000
 51
      360.000000
  0
ARC
  8
LVL0000
 10
      115.500000
 20
       94.000000
 30
        0.000000
 40
        2.000000
 50
        0.000000
 51
       90.000000
  0
LINE
  8
LVL0000
 10
     -115.500000
 20
      -96.000000
 30
        0.000000
 11
      115.500000
 21
      -96.000000
 31
        0.000000
  0
LINE
  8
LVL0000
 10
      117.500000
 20
      -94.000000
 30
        0.000000
 11
      117.500000
 21
       94.000000
 31
        0.000000
  0
LINE
  8
LVL0000
 10
     -115.500000
 20
       96.000000
 30
        0.000000
 11
      115.500000
 21
       96.000000
 31
        0.000000
  0
LINE
  8
LVL0000
 10
     -117.500000
 20
      -94.000000
 30
        0.000000
 11
     -117.500000
 21
       94.000000
 31
        0.000000
  0
CIRCLE
  8
LVL0000
 10
      -33.000000
 20
      -75.800000
 30
        0.000000
 40
        6.000000
  0
ENDSEC
  0
EOF
