  0
SECTION
  2
HEADER
  9
$ACADVER
  1
AC1006
  9
$DWGCODEPAGE
  3
ansi_932
  9
$INSBASE
 10
0.0
 20
0.0
 30
0.0
  9
$EXTMIN
 10
3235.611183
 20
36.058962
  9
$EXTMAX
 10
3625.824537654039
 20
386.300556
  9
$LIMMIN
 10
36.05896
 20
0.0
  9
$LIMMAX
 10
3625.825684
 20
391.650604
  9
$ORTHOMODE
 70
     0
  9
$REGENMODE
 70
     1
  9
$FILLMODE
 70
     1
  9
$QTEXTMODE
 70
     0
  9
$MIRRTEXT
 70
     1
  9
$DRAGMODE
 70
     2
  9
$LTSCALE
 40
1.0
  9
$OSMODE
 70
    37
  9
$ATTMODE
 70
     1
  9
$TEXTSIZE
 40
0.2
  9
$TRACEWID
 40
0.05
  9
$TEXTSTYLE
  7
STANDARD
  9
$CLAYER
  8
0
  9
$CELTYPE
  6
BYBLOCK
  9
$CECOLOR
 62
   256
  9
$DIMSCALE
 40
1.0
  9
$DIMASZ
 40
6.0
  9
$DIMEXO
 40
2.5
  9
$DIMDLI
 40
0.38
  9
$DIMRND
 40
0.0
  9
$DIMDLE
 40
0.0
  9
$DIMEXE
 40
1.5
  9
$DIMTP
 40
0.0
  9
$DIMTM
 40
0.0
  9
$DIMTXT
 40
5.0
  9
$DIMCEN
 40
0.09
  9
$DIMTSZ
 40
0.0
  9
$DIMTOL
 70
     0
  9
$DIMLIM
 70
     0
  9
$DIMTIH
 70
     0
  9
$DIMTOH
 70
     0
  9
$DIMSE1
 70
     0
  9
$DIMSE2
 70
     0
  9
$DIMTAD
 70
     1
  9
$DIMZIN
 70
     0
  9
$DIMBLK
  1

  9
$DIMASO
 70
     1
  9
$DIMSHO
 70
     1
  9
$DIMPOST
  1

  9
$DIMAPOST
  1

  9
$DIMALT
 70
     0
  9
$DIMALTD
 70
     2
  9
$DIMALTF
 40
25.4
  9
$DIMLFAC
 40
1.0
  9
$DIMTOFL
 70
     0
  9
$DIMTVP
 40
0.0
  9
$DIMTIX
 70
     0
  9
$DIMSOXD
 70
     0
  9
$DIMSAH
 70
     0
  9
$DIMBLK1
  1

  9
$DIMBLK2
  1

  9
$LUNITS
 70
     2
  9
$LUPREC
 70
     4
  9
$SKETCHINC
 40
0.1
  9
$FILLETRAD
 40
0.5
  9
$AUNITS
 70
     0
  9
$AUPREC
 70
     0
  9
$MENU
  1
.
  9
$ELEVATION
 40
0.0
  9
$THICKNESS
 40
0.0
  9
$LIMCHECK
 70
     0
  9
$CHAMFERA
 40
0.5
  9
$CHAMFERB
 40
0.5
  9
$SKPOLY
 70
     0
  9
$TDCREATE
 40
2453914.250002963
  9
$TDUPDATE
 40
2453914.250002963
  9
$TDINDWG
 40
0.0
  9
$TDUSRTIMER
 40
0.0
  9
$USRTIMER
 70
     1
  9
$ANGBASE
 50
0.0
  9
$ANGDIR
 70
     0
  9
$PDMODE
 70
     0
  9
$PDSIZE
 40
0.0
  9
$PLINEWID
 40
0.0
  9
$COORDS
 70
     1
  9
$SPLFRAME
 70
     0
  9
$SPLINETYPE
 70
     6
  9
$SPLINESEGS
 70
     8
  9
$ATTDIA
 70
     0
  9
$ATTREQ
 70
     1
  9
$HANDLING
 70
     1
  9
$HANDSEED
  5
19C
  9
$SURFTAB1
 70
     6
  9
$SURFTAB2
 70
     6
  9
$SURFTYPE
 70
     6
  9
$SURFU
 70
     6
  9
$SURFV
 70
     6
  9
$UCSNAME
  2

  9
$UCSORG
 10
0.0
 20
0.0
 30
0.0
  9
$UCSXDIR
 10
1.0
 20
0.0
 30
0.0
  9
$UCSYDIR
 10
0.0
 20
1.0
 30
0.0
  9
$USERI1
 70
     0
  9
$USERI2
 70
     0
  9
$USERI3
 70
     0
  9
$USERI4
 70
     0
  9
$USERI5
 70
     0
  9
$USERR1
 40
0.0
  9
$USERR2
 40
0.0
  9
$USERR3
 40
0.0
  9
$USERR4
 40
0.0
  9
$USERR5
 40
0.0
  9
$WORLDVIEW
 70
     1
  0
ENDSEC
  0
SECTION
  2
TABLES
  0
TABLE
  2
VPORT
 70
     1
  0
VPORT
  2
*ACTIVE
 70
     0
 10
0.0
 20
0.0
 11
1.0
 21
1.0
 12
3356.794851987865
 22
236.9664487244944
 13
0.0
 23
0.0
 14
0.5
 24
0.5
 15
0.5
 25
0.5
 16
0.0
 26
0.0
 36
1.0
 17
0.0
 27
0.0
 37
0.0
 40
493.6937606939325
 41
1.972972972850329
 42
50.0
 43
0.0
 44
0.0
 50
0.0
 51
0.0
 71
    16
 72
   100
 73
     1
 74
     3
 75
     0
 76
     0
 77
     0
 78
     0
  0
ENDTAB
  0
TABLE
  2
LTYPE
 70
     5
  0
LTYPE
  2
CONTINUOUS
 70
     0
  3
SOLID LINE
 72
    65
 73
     0
 40
0.0
  0
LTYPE
  2
DASHED
 70
     0
  3
-- -- -- -- -- --
 72
    65
 73
     2
 40
0.75
 49
0.5
 49
-0.25
  0
LTYPE
  2
DOT
 70
     0
  3
....................
 72
    65
 73
     2
 40
0.25
 49
0.02
 49
-0.23
  0
LTYPE
  2
CENTER
 70
     0
  3
-- . -- . -- . -- .
 72
    65
 73
     4
 40
2.0
 49
1.25
 49
-0.25
 49
0.25
 49
-0.25
  0
LTYPE
  2
PHANTOM
 70
     0
  3
-- .. -- .. -- ..
 72
    65
 73
     6
 40
2.5
 49
1.25
 49
-0.25
 49
0.25
 49
-0.25
 49
0.25
 49
-0.25
  0
ENDTAB
  0
TABLE
  2
LAYER
 70
     3
  0
LAYER
  2
0
 70
     0
 62
     3
  6
CONTINUOUS
  0
LAYER
  2
10
 70
     0
 62
     3
  6
CONTINUOUS
  0
LAYER
  2
140
 70
     0
 62
     3
  6
CONTINUOUS
  0
ENDTAB
  0
TABLE
  2
STYLE
 70
     2
  0
STYLE
  2
STANDARD
 70
     0
 40
0.0
 41
1.0
 50
0.0
 71
     0
 42
5.0
  3
ROMANS
  4
BIGFONT
  0
STYLE
  2
BIGFONT
 70
     0
 40
0.0
 41
1.0
 50
0.0
 71
     0
 42
5.0
  3
ROMANS
  4
BIGFONT
  0
ENDTAB
  0
TABLE
  2
VIEW
 70
     0
  0
ENDTAB
  0
TABLE
  2
UCS
 70
     0
  0
ENDTAB
  0
ENDSEC
  0
SECTION
  2
BLOCKS
  0
ENDSEC
  0
SECTION
  2
ENTITIES
  0
LINE
  5
2C
  8
0
 10
3606.01918
 20
226.610758
 30
0.0
 11
3587.769851
 21
224.692676
 31
0.0
  0
CIRCLE
  5
2D
  8
10
 10
3568.836772
 20
184.058962
 30
0.0
 40
5.0
  0
LINE
  5
2E
  8
140
 10
3584.912686
 20
223.404752
 30
0.0
 11
3563.223291
 21
203.509978
 31
0.0
  0
ARC
  5
2F
  8
140
 10
3566.603098
 20
199.825293
 30
0.0
 40
5.0
 50
132.528852
 51
186.000005
  0
LINE
  5
30
  8
140
 10
3561.630488
 20
199.302651
 30
0.0
 11
3565.221775
 21
165.133838
 31
0.0
  0
ARC
  5
31
  8
140
 10
3570.194385
 20
165.65648
 30
0.0
 40
5.0
 50
186.000005
 51
250.000003
  0
LINE
  5
32
  8
140
 10
3568.484284
 20
160.958017
 30
0.0
 11
3602.546873
 21
148.560248
 31
0.0
  0
LINE
  5
33
  8
0
 10
3551.836772
 20
159.058962
 30
0.0
 11
3551.836772
 21
209.058962
 31
0.0
  0
LINE
  5
34
  8
0
 10
3599.355792
 20
184.577974
 30
0.0
 11
3599.762057
 21
184.388536
 31
0.0
  0
LINE
  5
35
  8
0
 10
3599.762057
 20
184.388536
 30
0.0
 11
3600.636768
 21
184.373262
 31
0.0
  0
LINE
  5
36
  8
0
 10
3599.355792
 20
184.577974
 30
0.0
 11
3599.166354
 21
184.984239
 31
0.0
  0
LINE
  5
37
  8
0
 10
3599.166354
 20
184.984239
 30
0.0
 11
3599.151088
 21
185.858949
 31
0.0
  0
LINE
  5
38
  8
0
 10
3599.166354
 20
183.133699
 30
0.0
 11
3599.151088
 21
182.258974
 31
0.0
  0
LINE
  5
39
  8
0
 10
3599.355792
 20
183.539949
 30
0.0
 11
3599.166354
 21
183.133699
 31
0.0
  0
LINE
  5
3A
  8
0
 10
3599.355792
 20
183.539965
 30
0.0
 11
3599.762057
 21
183.729402
 31
0.0
  0
LINE
  5
3B
  8
0
 10
3599.762057
 20
183.729402
 30
0.0
 11
3600.636768
 21
183.744676
 31
0.0
  0
LINE
  5
3C
  8
0
 10
3598.50719
 20
184.984239
 30
0.0
 11
3598.522456
 21
185.858949
 31
0.0
  0
LINE
  5
3D
  8
0
 10
3598.317744
 20
184.577974
 30
0.0
 11
3598.50719
 21
184.984239
 31
0.0
  0
LINE
  5
3E
  8
0
 10
3598.317744
 20
184.577974
 30
0.0
 11
3597.911487
 21
184.388536
 31
0.0
  0
LINE
  5
3F
  8
0
 10
3597.911487
 20
184.388536
 30
0.0
 11
3597.036769
 21
184.373262
 31
0.0
  0
LINE
  5
40
  8
0
 10
3597.911487
 20
183.729402
 30
0.0
 11
3597.036769
 21
183.744676
 31
0.0
  0
LINE
  5
41
  8
0
 10
3598.317744
 20
183.539965
 30
0.0
 11
3597.911487
 21
183.729402
 31
0.0
  0
LINE
  5
42
  8
0
 10
3598.317744
 20
183.539949
 30
0.0
 11
3598.50719
 21
183.133699
 31
0.0
  0
LINE
  5
43
  8
0
 10
3598.50719
 20
183.133699
 30
0.0
 11
3598.522456
 21
182.258974
 31
0.0
  0
LINE
  5
44
  8
0
 10
3599.151088
 20
185.858949
 30
0.0
 11
3598.836787
 21
185.858949
 31
0.0
  0
LINE
  5
45
  8
0
 10
3598.522456
 20
185.858949
 30
0.0
 11
3598.836749
 21
185.858949
 31
0.0
  0
LINE
  5
46
  8
0
 10
3600.636768
 20
184.373262
 30
0.0
 11
3600.636768
 21
184.058962
 31
0.0
  0
LINE
  5
47
  8
0
 10
3600.636768
 20
183.744676
 30
0.0
 11
3600.636768
 21
184.058962
 31
0.0
  0
LINE
  5
48
  8
0
 10
3597.036769
 20
184.373262
 30
0.0
 11
3597.036769
 21
184.058962
 31
0.0
  0
LINE
  5
49
  8
0
 10
3597.036769
 20
183.744676
 30
0.0
 11
3597.036769
 21
184.058962
 31
0.0
  0
LINE
  5
4A
  8
0
 10
3599.151088
 20
182.258974
 30
0.0
 11
3598.522456
 21
182.258974
 31
0.0
  0
LINE
  5
4B
  8
0
 10
3569.355792
 20
184.577974
 30
0.0
 11
3569.762057
 21
184.388536
 31
0.0
  0
LINE
  5
4C
  8
0
 10
3569.762057
 20
184.388536
 30
0.0
 11
3570.636768
 21
184.373262
 31
0.0
  0
LINE
  5
4D
  8
0
 10
3569.355792
 20
184.577974
 30
0.0
 11
3569.166354
 21
184.984239
 31
0.0
  0
LINE
  5
4E
  8
0
 10
3569.166354
 20
184.984239
 30
0.0
 11
3569.151088
 21
185.858949
 31
0.0
  0
LINE
  5
4F
  8
0
 10
3569.166354
 20
183.133699
 30
0.0
 11
3569.151088
 21
182.258974
 31
0.0
  0
LINE
  5
50
  8
0
 10
3569.355792
 20
183.539949
 30
0.0
 11
3569.166354
 21
183.133699
 31
0.0
  0
LINE
  5
51
  8
0
 10
3569.355792
 20
183.539965
 30
0.0
 11
3569.762057
 21
183.729402
 31
0.0
  0
LINE
  5
52
  8
0
 10
3569.762057
 20
183.729402
 30
0.0
 11
3570.636768
 21
183.744676
 31
0.0
  0
LINE
  5
53
  8
0
 10
3568.50719
 20
184.984239
 30
0.0
 11
3568.522456
 21
185.858949
 31
0.0
  0
LINE
  5
54
  8
0
 10
3568.317744
 20
184.577974
 30
0.0
 11
3568.50719
 21
184.984239
 31
0.0
  0
LINE
  5
55
  8
0
 10
3568.317744
 20
184.577974
 30
0.0
 11
3567.911487
 21
184.388536
 31
0.0
  0
LINE
  5
56
  8
0
 10
3567.911487
 20
184.388536
 30
0.0
 11
3567.036769
 21
184.373262
 31
0.0
  0
LINE
  5
57
  8
0
 10
3567.911487
 20
183.729402
 30
0.0
 11
3567.036769
 21
183.744676
 31
0.0
  0
LINE
  5
58
  8
0
 10
3568.317744
 20
183.539965
 30
0.0
 11
3567.911487
 21
183.729402
 31
0.0
  0
LINE
  5
162
  8
0
 10
3568.317744
 20
183.539949
 30
0.0
 11
3568.50719
 21
183.133699
 31
0.0
  0
LINE
  5
163
  8
0
 10
3568.50719
 20
183.133699
 30
0.0
 11
3568.522456
 21
182.258974
 31
0.0
  0
LINE
  5
5B
  8
0
 10
3569.151088
 20
185.858949
 30
0.0
 11
3568.836787
 21
185.858949
 31
0.0
  0
LINE
  5
5C
  8
0
 10
3568.522456
 20
185.858949
 30
0.0
 11
3568.836749
 21
185.858949
 31
0.0
  0
LINE
  5
5D
  8
0
 10
3570.636768
 20
184.373262
 30
0.0
 11
3570.636768
 21
184.058962
 31
0.0
  0
LINE
  5
164
  8
0
 10
3570.636768
 20
183.744676
 30
0.0
 11
3570.636768
 21
184.058962
 31
0.0
  0
LINE
  5
5F
  8
0
 10
3567.036769
 20
184.373262
 30
0.0
 11
3567.036769
 21
184.058962
 31
0.0
  0
LINE
  5
60
  8
0
 10
3567.036769
 20
183.744676
 30
0.0
 11
3567.036769
 21
184.058962
 31
0.0
  0
LINE
  5
61
  8
0
 10
3569.151088
 20
182.258974
 30
0.0
 11
3568.522456
 21
182.258974
 31
0.0
  0
ARC
  5
62
  8
0
 10
3588.292493
 20
219.720067
 30
0.0
 40
5.0
 50
95.99999699999999
 51
132.528852
  0
LINE
  5
63
  8
0
 10
3604.030136
 20
226.401701
 30
0.0
 11
3606.01918
 21
226.610758
 31
0.0
  0
ARC
  5
64
  8
0
 10
3623.825756
 20
38.058962
 30
0.0
 40
2.0
 50
270.0
 51
6.000000000000001
  0
ARC
  5
65
  8
0
 10
3594.817534
 20
169.058962
 30
0.0
 40
2.15
 50
149.999996
 51
330.000001
  0
ARC
  5
66
  8
0
 10
3594.817534
 20
199.058962
 30
0.0
 40
2.15
 50
29.999999
 51
210.000004
  0
ARC
  5
67
  8
0
 10
3600.836772
 20
143.861785
 30
0.0
 40
5.0
 50
0.0
 51
69.99999800000001
  0
LINE
  5
68
  8
0
 10
3605.836772
 20
143.861785
 30
0.0
 11
3605.836772
 21
89.368808
 31
0.0
  0
ARC
  5
69
  8
0
 10
3595.836772
 20
89.368808
 30
0.0
 40
10.0
 50
320.000001
 51
0.0
  0
LINE
  5
6A
  8
0
 10
3603.497217
 20
82.940932
 30
0.0
 11
3567.514971
 21
40.058962
 31
0.0
  0
LINE
  5
165
  8
0
 10
3567.514971
 20
40.058962
 30
0.0
 11
3567.514971
 21
38.058962
 31
0.0
  0
LINE
  5
166
  8
0
 10
3501.046981
 20
36.058962
 30
0.0
 11
3501.046981
 21
38.058962
 31
0.0
  0
ARC
  5
6D
  8
0
 10
3568.836772
 20
184.058962
 30
0.0
 40
32.15
 50
330.000001
 51
351.664532
  0
ARC
  5
6E
  8
0
 10
3568.836772
 20
184.058962
 30
0.0
 40
32.15
 50
8.335468000000001
 51
29.999999
  0
ARC
  5
6F
  8
0
 10
3568.836772
 20
184.058962
 30
0.0
 40
27.85
 50
330.000001
 51
351.042905
  0
ARC
  5
70
  8
0
 10
3568.836772
 20
184.058962
 30
0.0
 40
27.85
 50
8.957095000000001
 51
29.999999
  0
CIRCLE
  5
71
  8
0
 10
3568.836772
 20
184.058962
 30
0.0
 40
3.5
  0
CIRCLE
  5
72
  8
0
 10
3598.836772
 20
184.058962
 30
0.0
 40
5.0
  0
CIRCLE
  5
167
  8
0
 10
3598.836772
 20
184.058962
 30
0.0
 40
3.5
  0
LINE
  5
168
  8
0
 10
3551.046981
 20
38.058962
 30
0.0
 11
3551.046981
 21
36.058962
 31
0.0
  0
LINE
  5
169
  8
0
 10
3614.836772
 20
38.058962
 30
0.0
 11
3623.825756
 21
38.058962
 31
0.0
  0
LINE
  5
16A
  8
0
 10
3623.825756
 20
38.058962
 30
0.0
 11
3623.510443
 21
41.058962
 31
0.0
  0
LINE
  5
77
  8
0
 10
3501.046981
 20
38.058962
 30
0.0
 11
3614.836772
 21
38.058962
 31
0.0
  0
LINE
  5
78
  8
0
 10
3614.836772
 20
41.058962
 30
0.0
 11
3614.836772
 21
36.058962
 31
0.0
  0
LINE
  5
79
  8
0
 10
3623.825756
 20
36.058962
 30
0.0
 11
3501.046981
 21
36.058962
 31
0.0
  0
LINE
  5
7A
  8
10
 10
3330.611183
 20
159.058962
 30
0.0
 11
3330.611183
 21
82.459864
 31
0.0
  0
LINE
  5
7B
  8
10
 10
3370.611183
 20
159.058962
 30
0.0
 11
3370.611183
 21
82.459864
 31
0.0
  0
ARC
  5
7C
  8
10
 10
3360.611183
 20
82.459864
 30
0.0
 40
10.0
 50
270.0
 51
0.0
  0
LINE
  5
7D
  8
10
 10
3340.611183
 20
72.459864
 30
0.0
 11
3360.611183
 21
72.459864
 31
0.0
  0
ARC
  5
7E
  8
10
 10
3340.611183
 20
82.459864
 30
0.0
 40
10.0
 50
179.999995
 51
270.0
  0
CIRCLE
  5
7F
  8
10
 10
3368.611183
 20
202.058962
 30
0.0
 40
2.15
  0
CIRCLE
  5
80
  8
10
 10
3332.611183
 20
202.058962
 30
0.0
 40
2.15
  0
CIRCLE
  5
81
  8
10
 10
3368.611183
 20
166.058962
 30
0.0
 40
2.15
  0
CIRCLE
  5
82
  8
10
 10
3332.611183
 20
166.058962
 30
0.0
 40
2.15
  0
LINE
  5
83
  8
0
 10
3380.611183
 20
209.058962
 30
0.0
 11
3380.611183
 21
159.058962
 31
0.0
  0
LINE
  5
84
  8
0
 10
3320.611183
 20
159.058962
 30
0.0
 11
3320.611183
 21
209.058962
 31
0.0
  0
LINE
  5
85
  8
0
 10
3380.611183
 20
209.058962
 30
0.0
 11
3320.611183
 21
209.058962
 31
0.0
  0
LINE
  5
86
  8
0
 10
3380.611183
 20
159.058962
 30
0.0
 11
3320.611183
 21
159.058962
 31
0.0
  0
LINE
  5
87
  8
0
 10
3318.111183
 20
226.610758
 30
0.0
 11
3318.111183
 21
38.058962
 31
0.0
  0
LINE
  5
88
  8
0
 10
3383.111183
 20
226.610758
 30
0.0
 11
3383.111183
 21
38.058962
 31
0.0
  0
LINE
  5
89
  8
0
 10
3381.111183
 20
226.610758
 30
0.0
 11
3381.111183
 21
38.058962
 31
0.0
  0
LINE
  5
8A
  8
0
 10
3320.111183
 20
226.610758
 30
0.0
 11
3320.111183
 21
38.058962
 31
0.0
  0
LINE
  5
8B
  8
10
 10
3318.111183
 20
226.610758
 30
0.0
 11
3383.111183
 21
226.610758
 31
0.0
  0
LINE
  5
8C
  8
0
 10
3380.111183
 20
38.058962
 30
0.0
 11
3380.111183
 21
41.058962
 31
0.0
  0
LINE
  5
8D
  8
0
 10
3321.111183
 20
41.058962
 30
0.0
 11
3321.111183
 21
38.058962
 31
0.0
  0
LINE
  5
8E
  8
0
 10
3235.611183
 20
38.058962
 30
0.0
 11
3465.611183
 21
38.058962
 31
0.0
  0
LINE
  5
8F
  8
0
 10
3465.611183
 20
36.058962
 30
0.0
 11
3235.611183
 21
36.058962
 31
0.0
  0
LINE
  5
90
  8
0
 10
3381.111183
 20
41.058962
 30
0.0
 11
3380.111183
 21
41.058962
 31
0.0
  0
LINE
  5
91
  8
0
 10
3320.111183
 20
41.058962
 30
0.0
 11
3321.111183
 21
41.058962
 31
0.0
  0
LINE
  5
16B
  8
0
 10
3235.611183
 20
36.058962
 30
0.0
 11
3235.611183
 21
38.058962
 31
0.0
  0
LINE
  5
16C
  8
0
 10
3465.611183
 20
38.058962
 30
0.0
 11
3465.611183
 21
36.058962
 31
0.0
  0
LINE
  5
94
  8
0
 10
3285.611183
 20
278.021553
 30
0.0
 11
3285.611183
 21
277.921553
 31
0.0
  0
ARC
  5
95
  8
0
 10
3285.611183
 20
309.321553
 30
0.0
 40
2.6
 50
0.0
 51
179.999995
  0
LINE
  5
96
  8
0
 10
3283.011183
 20
306.521553
 30
0.0
 11
3283.011183
 21
309.321553
 31
0.0
  0
ARC
  5
16D
  8
0
 10
3285.611183
 20
306.521553
 30
0.0
 40
2.6
 50
179.999995
 51
0.0
  0
LINE
  5
16E
  8
0
 10
3288.211183
 20
309.321553
 30
0.0
 11
3288.211183
 21
306.521553
 31
0.0
  0
ARC
  5
99
  8
0
 10
3285.611183
 20
283.021553
 30
0.0
 40
2.6
 50
179.999995
 51
0.0
  0
LINE
  5
9A
  8
0
 10
3283.011183
 20
283.021553
 30
0.0
 11
3283.011183
 21
285.821553
 31
0.0
  0
ARC
  5
9B
  8
0
 10
3285.611183
 20
285.821553
 30
0.0
 40
2.6
 50
0.0
 51
179.999995
  0
LINE
  5
9C
  8
0
 10
3288.211183
 20
285.821553
 30
0.0
 11
3288.211183
 21
283.021553
 31
0.0
  0
LINE
  5
9D
  8
0
 10
3285.611183
 20
280.821553
 30
0.0
 11
3285.611183
 21
280.721553
 31
0.0
  0
ARC
  5
9E
  8
0
 10
3415.611183
 20
283.021553
 30
0.0
 40
2.6
 50
179.999995
 51
0.0
  0
LINE
  5
9F
  8
0
 10
3418.211183
 20
285.821553
 30
0.0
 11
3418.211183
 21
283.021553
 31
0.0
  0
ARC
  5
A0
  8
0
 10
3415.611183
 20
285.821553
 30
0.0
 40
2.6
 50
0.0
 51
179.999995
  0
LINE
  5
A1
  8
0
 10
3413.011183
 20
283.021553
 30
0.0
 11
3413.011183
 21
285.821553
 31
0.0
  0
ARC
  5
A2
  8
0
 10
3415.611183
 20
306.521553
 30
0.0
 40
2.6
 50
179.999995
 51
0.0
  0
LINE
  5
A3
  8
0
 10
3418.211183
 20
309.321553
 30
0.0
 11
3418.211183
 21
306.521553
 31
0.0
  0
ARC
  5
A4
  8
0
 10
3415.611183
 20
309.321553
 30
0.0
 40
2.6
 50
0.0
 51
179.999995
  0
LINE
  5
A5
  8
0
 10
3413.011183
 20
306.521553
 30
0.0
 11
3413.011183
 21
309.321553
 31
0.0
  0
ARC
  5
A6
  8
10
 10
3240.611183
 20
266.521572
 30
0.0
 40
5.0
 50
179.999995
 51
270.0
  0
LINE
  5
A7
  8
10
 10
3240.611183
 20
261.521572
 30
0.0
 11
3460.611183
 21
261.521572
 31
0.0
  0
LINE
  5
A8
  8
0
 10
3235.611183
 20
308.659742
 30
0.0
 11
3235.611183
 21
266.521572
 31
0.0
  0
ARC
  5
A9
  8
10
 10
3460.611183
 20
266.521572
 30
0.0
 40
5.0
 50
270.0
 51
0.0
  0
LINE
  5
AA
  8
0
 10
3465.611183
 20
308.659742
 30
0.0
 11
3465.611183
 21
266.521572
 31
0.0
  0
LINE
  5
AB
  8
0
 10
3322.611183
 20
312.311572
 30
0.0
 11
3378.611183
 21
312.311572
 31
0.0
  0
ARC
  5
AC
  8
0
 10
3384.117284
 20
331.41853
 30
0.0
 40
1.3
 50
15.88121
 51
84.99985300000002
  0
LINE
  5
AD
  8
0
 10
3383.111183
 20
332.811572
 30
0.0
 11
3384.230589
 21
332.713583
 31
0.0
  0
ARC
  5
AE
  8
0
 10
3384.117277
 20
327.204613
 30
0.0
 40
1.3
 50
275.000152
 51
344.118693
  0
LINE
  5
AF
  8
0
 10
3383.111183
 20
325.811572
 30
0.0
 11
3384.230582
 21
325.909561
 31
0.0
  0
ARC
  5
B0
  8
0
 10
3324.511183
 20
329.311572
 30
0.0
 40
9.0
 50
164.119079
 51
195.880656
  0
ARC
  5
B1
  8
0
 10
3317.105082
 20
331.41853
 30
0.0
 40
1.3
 50
95.000142
 51
164.118785
  0
LINE
  5
B2
  8
0
 10
3318.111183
 20
332.811572
 30
0.0
 11
3316.991777
 21
332.713583
 31
0.0
  0
ARC
  5
B3
  8
0
 10
3317.105089
 20
327.204613
 30
0.0
 40
1.3
 50
195.881312
 51
264.999853
  0
LINE
  5
B4
  8
0
 10
3318.111183
 20
325.811572
 30
0.0
 11
3316.991783
 21
325.909561
 31
0.0
  0
ARC
  5
B5
  8
0
 10
3324.511183
 20
359.311572
 30
0.0
 40
9.0
 50
164.119079
 51
195.880656
  0
ARC
  5
B6
  8
0
 10
3317.105082
 20
361.41853
 30
0.0
 40
1.3
 50
95.000142
 51
164.118785
  0
LINE
  5
B7
  8
0
 10
3318.111183
 20
362.811572
 30
0.0
 11
3316.991777
 21
362.713583
 31
0.0
  0
ARC
  5
B8
  8
0
 10
3317.105089
 20
357.204613
 30
0.0
 40
1.3
 50
195.881312
 51
264.999853
  0
LINE
  5
B9
  8
0
 10
3318.111183
 20
355.811572
 30
0.0
 11
3316.991783
 21
355.909561
 31
0.0
  0
ARC
  5
BA
  8
0
 10
3376.711183
 20
359.311572
 30
0.0
 40
9.0
 50
344.119349
 51
15.88091600000001
  0
ARC
  5
BB
  8
0
 10
3384.117284
 20
361.41853
 30
0.0
 40
1.3
 50
15.88121
 51
84.99985300000002
  0
LINE
  5
BC
  8
0
 10
3383.111183
 20
362.811572
 30
0.0
 11
3384.230589
 21
362.713583
 31
0.0
  0
ARC
  5
BD
  8
0
 10
3384.117277
 20
357.204613
 30
0.0
 40
1.3
 50
275.000152
 51
344.118693
  0
LINE
  5
BE
  8
0
 10
3383.111183
 20
355.811572
 30
0.0
 11
3384.230582
 21
355.909561
 31
0.0
  0
LINE
  5
BF
  8
0
 10
3318.111183
 20
322.077898
 30
0.0
 11
3318.111183
 21
383.985243
 31
0.0
  0
LINE
  5
C0
  8
0
 10
3383.111183
 20
384.334452
 30
0.0
 11
3383.111183
 21
322.077898
 31
0.0
  0
LINE
  5
C1
  8
0
 10
3320.611183
 20
314.311572
 30
0.0
 11
3320.611183
 21
364.504936
 31
0.0
  0
LINE
  5
C2
  8
0
 10
3322.611183
 20
364.504936
 30
0.0
 11
3322.611183
 21
314.311572
 31
0.0
  0
LINE
  5
C3
  8
0
 10
3378.611183
 20
314.311572
 30
0.0
 11
3378.611183
 21
364.504936
 31
0.0
  0
LINE
  5
C4
  8
0
 10
3380.611183
 20
364.504936
 30
0.0
 11
3380.611183
 21
314.311572
 31
0.0
  0
LINE
  5
C5
  8
0
 10
3373.111183
 20
357.811572
 30
0.0
 11
3376.611183
 21
357.811572
 31
0.0
  0
LINE
  5
C6
  8
0
 10
3373.111183
 20
357.311572
 30
0.0
 11
3376.611183
 21
357.311572
 31
0.0
  0
LINE
  5
C7
  8
0
 10
3373.111183
 20
360.811572
 30
0.0
 11
3376.611183
 21
360.811572
 31
0.0
  0
LINE
  5
C8
  8
0
 10
3373.111183
 20
361.311572
 30
0.0
 11
3376.611183
 21
361.311572
 31
0.0
  0
LINE
  5
C9
  8
0
 10
3373.111183
 20
361.311572
 30
0.0
 11
3373.111183
 21
357.311572
 31
0.0
  0
LINE
  5
CA
  8
0
 10
3328.111183
 20
361.311572
 30
0.0
 11
3328.111183
 21
357.311572
 31
0.0
  0
LINE
  5
CB
  8
0
 10
3328.111183
 20
361.311572
 30
0.0
 11
3324.611183
 21
361.311572
 31
0.0
  0
LINE
  5
CC
  8
0
 10
3328.111183
 20
360.811572
 30
0.0
 11
3324.611183
 21
360.811572
 31
0.0
  0
LINE
  5
CD
  8
0
 10
3328.111183
 20
357.311572
 30
0.0
 11
3324.611183
 21
357.311572
 31
0.0
  0
LINE
  5
CE
  8
0
 10
3328.111183
 20
357.811572
 30
0.0
 11
3324.611183
 21
357.811572
 31
0.0
  0
LINE
  5
CF
  8
0
 10
3376.611183
 20
363.811572
 30
0.0
 11
3376.611183
 21
354.811572
 31
0.0
  0
LINE
  5
D0
  8
0
 10
3324.611183
 20
363.811572
 30
0.0
 11
3324.611183
 21
354.811572
 31
0.0
  0
LINE
  5
D1
  8
0
 10
3376.611183
 20
354.811572
 30
0.0
 11
3378.611183
 21
354.811572
 31
0.0
  0
LINE
  5
D2
  8
0
 10
3378.611183
 20
363.811572
 30
0.0
 11
3376.611183
 21
363.811572
 31
0.0
  0
LINE
  5
D3
  8
0
 10
3324.611183
 20
363.811572
 30
0.0
 11
3322.611183
 21
363.811572
 31
0.0
  0
LINE
  5
D4
  8
0
 10
3322.611183
 20
354.811572
 30
0.0
 11
3324.611183
 21
354.811572
 31
0.0
  0
LINE
  5
D5
  8
0
 10
3380.111183
 20
386.300556
 30
0.0
 11
3321.111183
 21
386.300556
 31
0.0
  0
LINE
  5
D6
  8
0
 10
3321.111183
 20
385.996259
 30
0.0
 11
3320.111183
 21
385.996259
 31
0.0
  0
LINE
  5
D7
  8
0
 10
3321.111183
 20
386.289599
 30
0.0
 11
3321.111183
 21
385.996259
 31
0.0
  0
LINE
  5
D8
  8
0
 10
3380.111183
 20
386.289599
 30
0.0
 11
3321.111183
 21
386.289599
 31
0.0
  0
LINE
  5
D9
  8
0
 10
3380.111183
 20
386.289599
 30
0.0
 11
3380.111183
 21
385.996259
 31
0.0
  0
LINE
  5
DA
  8
0
 10
3380.111183
 20
385.996259
 30
0.0
 11
3381.111183
 21
385.996259
 31
0.0
  0
LINE
  5
DB
  8
0
 10
3381.111183
 20
366.49398
 30
0.0
 11
3320.111183
 21
366.49398
 31
0.0
  0
LINE
  5
DC
  8
0
 10
3381.111183
 20
364.504936
 30
0.0
 11
3320.111183
 21
364.504936
 31
0.0
  0
LINE
  5
DD
  8
0
 10
3321.111183
 20
386.300556
 30
0.0
 11
3321.111183
 21
386.289599
 31
0.0
  0
LINE
  5
DE
  8
0
 10
3380.111183
 20
386.300556
 30
0.0
 11
3380.111183
 21
386.289599
 31
0.0
  0
POLYLINE
  5
DF
  8
0
 66
     1
 10
0.0
 20
0.0
 30
0.0
  0
VERTEX
  5
177
  8
0
 10
3370.611259
 20
381.650681
 30
0.0
 42
0.419078
  0
VERTEX
  5
178
  8
0
 10
3370.360558
 20
381.883196
 30
0.0
 42
0.116497
  0
VERTEX
  5
179
  8
0
 10
3369.621026
 20
382.104122
 30
0.0
 42
0.031944
  0
VERTEX
  5
17A
  8
0
 10
3368.429742
 20
382.302309
 30
0.0
 42
0.015457
  0
VERTEX
  5
17B
  8
0
 10
3366.846438
 20
382.46782
 30
0.0
 42
0.009821
  0
VERTEX
  5
17C
  8
0
 10
3364.950502
 20
382.592356
 30
0.0
 42
0.007391
  0
VERTEX
  5
17D
  8
0
 10
3362.836994
 20
382.669672
 30
0.0
 42
0.006312
  0
VERTEX
  5
17E
  8
0
 10
3360.611183
 20
382.695892
 30
0.0
 42
0.005999
  0
SEQEND
  5
176
  8
0
  0
POLYLINE
  5
E9
  8
0
 66
     1
 10
0.0
 20
0.0
 30
0.0
  0
VERTEX
  5
180
  8
0
 10
3340.611319
 20
382.695892
 30
0.0
 42
0.005998
  0
VERTEX
  5
181
  8
0
 10
3338.386136
 20
382.669683
 30
0.0
 42
0.006311
  0
VERTEX
  5
182
  8
0
 10
3336.272536
 20
382.592375
 30
0.0
 42
0.007391
  0
VERTEX
  5
183
  8
0
 10
3334.376498
 20
382.467843
 30
0.0
 42
0.00982
  0
VERTEX
  5
184
  8
0
 10
3332.793098
 20
382.302333
 30
0.0
 42
0.015456
  0
VERTEX
  5
185
  8
0
 10
3331.60173
 20
382.104144
 30
0.0
 42
0.031942
  0
VERTEX
  5
186
  8
0
 10
3330.862134
 20
381.883213
 30
0.0
 42
0.116526
  0
VERTEX
  5
187
  8
0
 10
3330.611396
 20
381.650618
 30
0.0
 42
0.419085
  0
SEQEND
  5
17F
  8
0
  0
POLYLINE
  5
F3
  8
0
 66
     1
 10
0.0
 20
0.0
 30
0.0
  0
VERTEX
  5
189
  8
0
 10
3330.611183
 20
370.675118
 30
0.0
 42
0.384862
  0
VERTEX
  5
18A
  8
0
 10
3330.803312
 20
370.471192
 30
0.0
 42
0.123078
  0
VERTEX
  5
18B
  8
0
 10
3331.372357
 20
370.275102
 30
0.0
 42
0.035326
  0
VERTEX
  5
18C
  8
0
 10
3332.296449
 20
370.094384
 30
0.0
 42
0.016918
  0
VERTEX
  5
18D
  8
0
 10
3333.540077
 20
369.935983
 30
0.0
 42
0.010469
  0
VERTEX
  5
18E
  8
0
 10
3335.055446
 20
369.805987
 30
0.0
 42
0.007579
  0
VERTEX
  5
18F
  8
0
 10
3336.784322
 20
369.709391
 30
0.0
 42
0.006141
  0
VERTEX
  5
190
  8
0
 10
3338.660263
 20
369.649908
 30
0.0
 42
0.00545
  0
VERTEX
  5
191
  8
0
 10
3340.61118
 20
369.629823
 30
0.0
 42
0.005243
  0
SEQEND
  5
188
  8
0
  0
POLYLINE
  5
FE
  8
0
 66
     1
 10
0.0
 20
0.0
 30
0.0
  0
VERTEX
  5
193
  8
0
 10
3360.61118
 20
369.62976
 30
0.0
 42
0.005243
  0
VERTEX
  5
194
  8
0
 10
3362.562169
 20
369.649846
 30
0.0
 42
0.00545
  0
VERTEX
  5
195
  8
0
 10
3364.438178
 20
369.709334
 30
0.0
 42
0.006141
  0
VERTEX
  5
196
  8
0
 10
3366.167103
 20
369.805937
 30
0.0
 42
0.007579
  0
VERTEX
  5
197
  8
0
 10
3367.682499
 20
369.935943
 30
0.0
 42
0.01047
  0
VERTEX
  5
198
  8
0
 10
3368.926123
 20
370.094354
 30
0.0
 42
0.016921
  0
VERTEX
  5
199
  8
0
 10
3369.850181
 20
370.275082
 30
0.0
 42
0.035335
  0
VERTEX
  5
19A
  8
0
 10
3370.419156
 20
370.471183
 30
0.0
 42
0.123137
  0
VERTEX
  5
19B
  8
0
 10
3370.611183
 20
370.675118
 30
0.0
 42
0.384871
  0
SEQEND
  5
192
  8
0
  0
LINE
  5
109
  8
0
 10
3370.611183
 20
370.675118
 30
0.0
 11
3370.611183
 21
381.650607
 31
0.0
  0
LINE
  5
10A
  8
0
 10
3330.611183
 20
370.675118
 30
0.0
 11
3330.611183
 21
381.650607
 31
0.0
  0
LINE
  5
10B
  8
0
 10
3360.611183
 20
382.695892
 30
0.0
 11
3340.611183
 21
382.695892
 31
0.0
  0
LINE
  5
10C
  8
0
 10
3360.611183
 20
369.629834
 30
0.0
 11
3340.611183
 21
369.629834
 31
0.0
  0
LINE
  5
10D
  8
0
 10
3381.111183
 20
322.077898
 30
0.0
 11
3381.111183
 21
323.698091
 31
0.0
  0
LINE
  5
10E
  8
0
 10
3320.111183
 20
323.698091
 30
0.0
 11
3320.111183
 21
322.077898
 31
0.0
  0
LINE
  5
10F
  8
0
 10
3381.111183
 20
345.387486
 30
0.0
 11
3381.111183
 21
323.698091
 31
0.0
  0
LINE
  5
110
  8
0
 10
3320.111183
 20
345.387486
 30
0.0
 11
3320.111183
 21
323.698091
 31
0.0
  0
LINE
  5
111
  8
0
 10
3381.111183
 20
345.387486
 30
0.0
 11
3381.111183
 21
348.244651
 31
0.0
  0
LINE
  5
112
  8
0
 10
3320.111183
 20
348.244651
 30
0.0
 11
3320.111183
 21
345.387486
 31
0.0
  0
LINE
  5
113
  8
0
 10
3320.111183
 20
364.504936
 30
0.0
 11
3320.111183
 21
348.244651
 31
0.0
  0
LINE
  5
114
  8
0
 10
3381.111183
 20
364.504936
 30
0.0
 11
3381.111183
 21
348.244651
 31
0.0
  0
LINE
  5
115
  8
0
 10
3381.111183
 20
322.077898
 30
0.0
 11
3383.111183
 21
322.077898
 31
0.0
  0
LINE
  5
116
  8
0
 10
3318.111183
 20
322.077898
 30
0.0
 11
3320.111183
 21
322.077898
 31
0.0
  0
ARC
  5
117
  8
0
 10
3034.274389
 20
657.156697
 30
0.0
 40
400.0
 50
300.628772
 51
315.2017290000001
  0
ARC
  5
118
  8
0
 10
3240.611183
 20
308.659742
 30
0.0
 40
5.0
 50
120.628767
 51
180.000005
  0
LINE
  5
119
  8
0
 10
3322.611183
 20
324.811572
 30
0.0
 11
3324.611183
 21
324.811572
 31
0.0
  0
LINE
  5
11A
  8
0
 10
3324.611183
 20
333.811572
 30
0.0
 11
3322.611183
 21
333.811572
 31
0.0
  0
LINE
  5
11B
  8
0
 10
3378.611183
 20
333.811572
 30
0.0
 11
3376.611183
 21
333.811572
 31
0.0
  0
LINE
  5
11C
  8
0
 10
3376.611183
 20
324.811572
 30
0.0
 11
3378.611183
 21
324.811572
 31
0.0
  0
LINE
  5
11D
  8
0
 10
3322.611183
 20
314.311572
 30
0.0
 11
3378.611183
 21
314.311572
 31
0.0
  0
ARC
  5
11E
  8
0
 10
3378.611183
 20
314.311572
 30
0.0
 40
2.0
 50
270.0
 51
0.0
  0
ARC
  5
11F
  8
0
 10
3322.611183
 20
314.311572
 30
0.0
 40
2.0
 50
180.000005
 51
270.0
  0
LINE
  5
120
  8
0
 10
3324.611183
 20
333.811572
 30
0.0
 11
3324.611183
 21
324.811572
 31
0.0
  0
LINE
  5
121
  8
0
 10
3376.611183
 20
333.811572
 30
0.0
 11
3376.611183
 21
324.811572
 31
0.0
  0
ARC
  5
122
  8
0
 10
3460.611183
 20
308.659742
 30
0.0
 40
5.0
 50
0.0
 51
59.371228
  0
ARC
  5
123
  8
0
 10
3666.947977
 20
657.156697
 30
0.0
 40
400.0
 50
224.798276
 51
239.371233
  0
LINE
  5
124
  8
0
 10
3328.111183
 20
331.311572
 30
0.0
 11
3324.611183
 21
331.311572
 31
0.0
  0
LINE
  5
125
  8
0
 10
3328.111183
 20
330.811572
 30
0.0
 11
3324.611183
 21
330.811572
 31
0.0
  0
LINE
  5
126
  8
0
 10
3328.111183
 20
327.811572
 30
0.0
 11
3324.611183
 21
327.811572
 31
0.0
  0
LINE
  5
127
  8
0
 10
3328.111183
 20
327.311572
 30
0.0
 11
3324.611183
 21
327.311572
 31
0.0
  0
LINE
  5
128
  8
0
 10
3328.111183
 20
331.311572
 30
0.0
 11
3328.111183
 21
327.311572
 31
0.0
  0
LINE
  5
129
  8
0
 10
3373.111183
 20
331.311572
 30
0.0
 11
3373.111183
 21
327.311572
 31
0.0
  0
LINE
  5
12A
  8
0
 10
3373.111183
 20
327.311572
 30
0.0
 11
3376.611183
 21
327.311572
 31
0.0
  0
LINE
  5
12B
  8
0
 10
3373.111183
 20
327.811572
 30
0.0
 11
3376.611183
 21
327.811572
 31
0.0
  0
LINE
  5
12C
  8
0
 10
3373.111183
 20
330.811572
 30
0.0
 11
3376.611183
 21
330.811572
 31
0.0
  0
LINE
  5
12D
  8
0
 10
3373.111183
 20
331.311572
 30
0.0
 11
3376.611183
 21
331.311572
 31
0.0
  0
LINE
  5
12E
  8
0
 10
3348.903246
 20
377.318401
 30
0.0
 11
3348.902961
 21
377.318401
 31
0.0
  0
LINE
  5
12F
  8
0
 10
3381.111183
 20
385.996259
 30
0.0
 11
3381.458479
 21
385.965708
 31
0.0
  0
LINE
  5
130
  8
0
 10
3381.458479
 20
385.965708
 30
0.0
 11
3381.795223
 21
385.87498
 31
0.0
  0
LINE
  5
131
  8
0
 10
3381.795223
 20
385.87498
 30
0.0
 11
3382.111183
 21
385.726834
 31
0.0
  0
LINE
  5
132
  8
0
 10
3382.111183
 20
385.726834
 30
0.0
 11
3382.396758
 21
385.525771
 31
0.0
  0
LINE
  5
133
  8
0
 10
3382.396758
 20
385.525771
 30
0.0
 11
3382.643272
 21
385.277899
 31
0.0
  0
LINE
  5
134
  8
0
 10
3382.643272
 20
385.277899
 30
0.0
 11
3382.843234
 21
384.990751
 31
0.0
  0
LINE
  5
135
  8
0
 10
3382.843234
 20
384.990751
 30
0.0
 11
3382.990568
 21
384.673051
 31
0.0
  0
LINE
  5
136
  8
0
 10
3382.990568
 20
384.673051
 30
0.0
 11
3383.080798
 21
384.334452
 31
0.0
  0
LINE
  5
137
  8
0
 10
3383.080798
 20
384.334452
 30
0.0
 11
3383.111183
 21
383.985243
 31
0.0
  0
LINE
  5
138
  8
0
 10
3383.111183
 20
364.504936
 30
0.0
 11
3383.072753
 21
364.892979
 31
0.0
  0
LINE
  5
139
  8
0
 10
3383.072753
 20
364.892979
 30
0.0
 11
3382.958942
 21
365.26611
 31
0.0
  0
LINE
  5
13A
  8
0
 10
3382.958942
 20
365.26611
 30
0.0
 11
3382.774122
 21
365.60999
 31
0.0
  0
LINE
  5
13B
  8
0
 10
3382.774122
 20
365.60999
 30
0.0
 11
3382.525396
 21
365.911402
 31
0.0
  0
LINE
  5
13C
  8
0
 10
3382.525396
 20
365.911402
 30
0.0
 11
3382.222323
 21
366.158765
 31
0.0
  0
LINE
  5
13D
  8
0
 10
3382.222323
 20
366.158765
 30
0.0
 11
3381.87655
 21
366.342573
 31
0.0
  0
LINE
  5
13E
  8
0
 10
3381.87655
 20
366.342573
 30
0.0
 11
3381.501364
 21
366.455761
 31
0.0
  0
LINE
  5
13F
  8
0
 10
3381.501364
 20
366.455761
 30
0.0
 11
3381.111183
 21
366.49398
 31
0.0
  0
LINE
  5
140
  8
0
 10
3318.111183
 20
383.985243
 30
0.0
 11
3318.149612
 21
384.377573
 31
0.0
  0
LINE
  5
141
  8
0
 10
3318.149612
 20
384.377573
 30
0.0
 11
3318.263424
 21
384.754826
 31
0.0
  0
LINE
  5
142
  8
0
 10
3318.263424
 20
384.754826
 30
0.0
 11
3318.448244
 21
385.102504
 31
0.0
  0
LINE
  5
143
  8
0
 10
3318.448244
 20
385.102504
 30
0.0
 11
3318.696969
 21
385.407246
 31
0.0
  0
LINE
  5
144
  8
0
 10
3318.696969
 20
385.407246
 30
0.0
 11
3319.000042
 21
385.657342
 31
0.0
  0
LINE
  5
145
  8
0
 10
3319.000042
 20
385.657342
 30
0.0
 11
3319.345816
 21
385.84318
 31
0.0
  0
LINE
  5
146
  8
0
 10
3319.345816
 20
385.84318
 30
0.0
 11
3319.721002
 21
385.957618
 31
0.0
  0
LINE
  5
147
  8
0
 10
3319.721002
 20
385.957618
 30
0.0
 11
3320.111183
 21
385.996259
 31
0.0
  0
LINE
  5
148
  8
0
 10
3320.111183
 20
366.49398
 30
0.0
 11
3319.721002
 21
366.455761
 31
0.0
  0
LINE
  5
149
  8
0
 10
3319.721002
 20
366.455761
 30
0.0
 11
3319.345816
 21
366.342573
 31
0.0
  0
LINE
  5
14A
  8
0
 10
3319.345816
 20
366.342573
 30
0.0
 11
3319.000042
 21
366.158765
 31
0.0
  0
LINE
  5
14B
  8
0
 10
3319.000042
 20
366.158765
 30
0.0
 11
3318.696969
 21
365.911402
 31
0.0
  0
LINE
  5
14C
  8
0
 10
3318.696969
 20
365.911402
 30
0.0
 11
3318.448244
 21
365.60999
 31
0.0
  0
LINE
  5
14D
  8
0
 10
3318.448244
 20
365.60999
 30
0.0
 11
3318.263424
 21
365.26611
 31
0.0
  0
LINE
  5
14E
  8
0
 10
3318.263424
 20
365.26611
 30
0.0
 11
3318.149612
 21
364.892979
 31
0.0
  0
LINE
  5
14F
  8
0
 10
3318.149612
 20
364.892979
 30
0.0
 11
3318.111183
 21
364.504936
 31
0.0
  0
ARC
  5
150
  8
0
 10
3376.711183
 20
329.311572
 30
0.0
 40
9.0
 50
344.119349
 51
15.88091600000001
  0
LINE
  5
151
  8
0
 10
3606.01918
 20
226.610758
 30
0.0
 11
3625.814799
 21
38.268019
 31
0.0
  0
LINE
  5
152
  8
0
 10
3625.521459
 20
41.058962
 30
0.0
 11
3614.836772
 21
41.058962
 31
0.0
  0
LINE
  5
153
  8
0
 10
3551.836772
 20
159.058962
 30
0.0
 11
3573.701895
 21
159.058962
 31
0.0
  0
LINE
  5
154
  8
0
 10
3569.272824
 20
209.058962
 30
0.0
 11
3551.836772
 21
209.058962
 31
0.0
  0
ENDSEC
  0
EOF
