  0
SECTION
  2
HEADER
  9
$ACADVER
  1
AC1006
  9
$INSBASE
 10
0.0
 20
0.0
 30
0.0
  9
$EXTMIN
 10
     -122.199997
 20
     -122.199997
  9
$EXTMAX
 10
      239.209503
 20
      118.616135
  9
$LIMMIN
 10
     -122.199997
 20
     -122.199997
  9
$LIMMAX
 10
      239.209503
 20
      118.616135
  9
$VIEWCTR
 10
       58.504753
 20
       58.504753
  9
$ORTHOMODE
 70
     0
  9
$ANGBASE
 50
0.0
  9
$ANGDIR
 70
     0
  9
$SPLINETYPE
 70
     6
  9
$SPLINESEGS
 70
     8
9
$DIMASZ
 40
        6.000000
9
$DIMEXE
 40
        1.500000
9
$DIMEXO
 40
        2.500000
9
$DIMTXT
 40
        5.000000
9
$DIMGAP
 40
        1.500000
9
$DIMTAD
 70
1
9
$DIMTIH
 70
0
9
$DIMTOH
 70
0
  0
ENDSEC
  0
SECTION
  2
TABLES
  0
TABLE
  2
LTYPE
 70
     5
  0
LTYPE
  2
CONTINUOUS
 70
    64
  3
SOLID LINE
 72
    65
 73
     0
 40
0.0
  0
LTYPE
  2
DASHED
 70
    64
  3
-- -- -- -- -- --
 72
    65
 73
     2
 40
  0.75  
 49
  0.50  
 49
 -0.25  
  0
LTYPE
  2
DOT
 70
    64
  3
....................
 72
    65
 73
     2
 40
  0.25  
 49
  0.02  
 49
 -0.23  
  0
LTYPE
  2
CENTER
 70
    64
  3
-- . -- . -- . -- .
 72
    65
 73
    4
 40
  2.00  
 49
  1.25  
 49
 -0.25  
 49
  0.25  
 49
 -0.25  
  0
LTYPE
  2
PHANTOM
 70
    64
  3
-- .. -- .. -- ..
 72
    65
 73
    6
 40
  2.50  
 49
  1.25  
 49
 -0.25  
 49
  0.25  
 49
 -0.25  
 49
  0.25  
 49
 -0.25  
  0
ENDTAB
  0
TABLE
  2
LAYER
 70
     2
  0
LAYER
  2
0
 70
    64
 62
     3
  6
CONTINUOUS
  0
LAYER
  2
1
 70
    64
 62
     2
  6
DOT
  0
ENDTAB
  0
TABLE
  2
STYLE
 70
     2
  0
STYLE
  2
STANDARD
 70
    64
 40
0.0
 41
1.0
 50
0.0
 71
     0
 42
5.0
  3
ROMANS
  4
BIGFONT
  0
STYLE
  2
BIGFONT
 70
    64
 40
0.0
 41
1.0
 50
0.0
 71
     0
 42
5.0
  3
ROMANS
  4
BIGFONT
  0
ENDTAB
  0
TABLE
  2
VIEW
 70
     0
  0
ENDTAB
  0
TABLE
  2
UCS
 70
     0
  0
ENDTAB
  0
TABLE
  2
DWGMGR
 70
     0
  0
ENDTAB
  0
ENDSEC
  0
SECTION
  2
BLOCKS
  0
BLOCK
  8
0
  2
BLK0001
 70
    64
 10
        0.000000
 20
        0.000000
  0
TEXT
  8
0
 62
  4
 10
       75.324348
 20
     -104.000000
 30
        0.000000
 40
        2.922500
  1
３０
 50
       90.000000
 41
        1.000000
 51
        0.000000
  7
BIGFONT
  0
LINE
  8
0
 62
  4
 10
       64.000000
 20
      -86.500000
 30
        0.000000
 11
       76.724350
 21
      -86.500000
 31
        0.000000
  0
LINE
  8
0
 62
  4
 10
       64.000000
 20
     -116.500000
 30
        0.000000
 11
       76.724350
 21
     -116.500000
 31
        0.000000
  0
LINE
  8
0
 62
  4
 10
       76.809753
 20
      -89.500000
 30
        0.000000
 11
       76.024353
 21
      -86.500000
 31
        0.000000
  0
LINE
  8
0
 62
  4
 10
       76.024353
 20
      -86.500000
 30
        0.000000
 11
       75.238953
 21
      -89.500000
 31
        0.000000
  0
LINE
  8
0
 62
  4
 10
       75.238953
 20
     -113.500000
 30
        0.000000
 11
       76.024353
 21
     -116.500000
 31
        0.000000
  0
LINE
  8
0
 62
  4
 10
       76.024353
 20
     -116.500000
 30
        0.000000
 11
       76.809753
 21
     -113.500000
 31
        0.000000
  0
LINE
  8
0
 62
  4
 10
       76.024353
 20
      -86.500000
 30
        0.000000
 11
       76.024353
 21
     -116.500000
 31
        0.000000
  0
ENDBLK
  0
BLOCK
  8
0
  2
BLK0002
 70
    64
 10
        0.000000
 20
        0.000000
  0
TEXT
  8
0
 62
  4
 10
      194.156860
 20
      -85.844131
 30
        0.000000
 40
        2.922500
  1
１１．６
 50
        0.000000
 41
        1.000000
 51
        0.000000
  7
BIGFONT
  0
LINE
  8
0
 62
  4
 10
      211.399994
 20
      -75.605995
 30
        0.000000
 11
      211.399994
 21
      -87.244133
 31
        0.000000
  0
LINE
  8
0
 62
  4
 10
      223.000000
 20
      -78.455994
 30
        0.000000
 11
      223.000000
 21
      -87.244133
 31
        0.000000
  0
LINE
  8
0
 62
  4
 10
      214.399994
 20
      -85.758736
 30
        0.000000
 11
      211.399994
 21
      -86.544136
 31
        0.000000
  0
LINE
  8
0
 62
  4
 10
      211.399994
 20
      -86.544136
 30
        0.000000
 11
      214.399994
 21
      -87.329536
 31
        0.000000
  0
LINE
  8
0
 62
  4
 10
      220.000000
 20
      -87.329536
 30
        0.000000
 11
      223.000000
 21
      -86.544136
 31
        0.000000
  0
LINE
  8
0
 62
  4
 10
      223.000000
 20
      -86.544136
 30
        0.000000
 11
      220.000000
 21
      -85.758736
 31
        0.000000
  0
LINE
  8
0
 62
  4
 10
      194.156860
 20
      -86.544128
 30
        0.000000
 11
      223.000000
 21
      -86.544136
 31
        0.000000
  0
ENDBLK
  0
BLOCK
  8
0
  2
BLK0003
 70
    64
 10
        0.000000
 20
        0.000000
  0
TEXT
  8
0
 62
  4
 10
      235.412140
 20
      -70.577652
 30
        0.000000
 40
        2.922500
  1
５．７
 50
       90.000000
 41
        1.000000
 51
        0.000000
  7
BIGFONT
  0
LINE
  8
0
 62
  4
 10
      212.399994
 20
      -71.755997
 30
        0.000000
 11
      236.812134
 21
      -71.755997
 31
        0.000000
  0
LINE
  8
0
 62
  4
 10
      224.000000
 20
      -77.455994
 30
        0.000000
 11
      236.812134
 21
      -77.455994
 31
        0.000000
  0
LINE
  8
0
 62
  4
 10
      235.326736
 20
      -68.755997
 30
        0.000000
 11
      236.112137
 21
      -71.755997
 31
        0.000000
  0
LINE
  8
0
 62
  4
 10
      236.112137
 20
      -71.755997
 30
        0.000000
 11
      236.897537
 21
      -68.755997
 31
        0.000000
  0
LINE
  8
0
 62
  4
 10
      236.897537
 20
      -80.455994
 30
        0.000000
 11
      236.112137
 21
      -77.455994
 31
        0.000000
  0
LINE
  8
0
 62
  4
 10
      236.112137
 20
      -77.455994
 30
        0.000000
 11
      235.326736
 21
      -80.455994
 31
        0.000000
  0
LINE
  8
0
 62
  4
 10
      236.112137
 20
      -60.077652
 30
        0.000000
 11
      236.112137
 21
      -82.955994
 31
        0.000000
  0
ENDBLK
  0
BLOCK
  8
0
  2
BLK0004
 70
    64
 10
        0.000000
 20
        0.000000
  0
TEXT
  8
0
 62
  4
 10
      237.724106
 20
       -2.500000
 30
        0.000000
 40
        2.922500
  1
９１
 50
       90.000000
 41
        1.000000
 51
        0.000000
  7
BIGFONT
  0
LINE
  8
0
 62
  4
 10
      223.500000
 20
       45.500000
 30
        0.000000
 11
      239.124100
 21
       45.500000
 31
        0.000000
  0
LINE
  8
0
 62
  4
 10
      223.500000
 20
      -45.500000
 30
        0.000000
 11
      239.124100
 21
      -45.500000
 31
        0.000000
  0
LINE
  8
0
 62
  4
 10
      239.209503
 20
       42.500000
 30
        0.000000
 11
      238.424103
 21
       45.500000
 31
        0.000000
  0
LINE
  8
0
 62
  4
 10
      238.424103
 20
       45.500000
 30
        0.000000
 11
      237.638702
 21
       42.500000
 31
        0.000000
  0
LINE
  8
0
 62
  4
 10
      237.638702
 20
      -42.500000
 30
        0.000000
 11
      238.424103
 21
      -45.500000
 31
        0.000000
  0
LINE
  8
0
 62
  4
 10
      238.424103
 20
      -45.500000
 30
        0.000000
 11
      239.209503
 21
      -42.500000
 31
        0.000000
  0
LINE
  8
0
 62
  4
 10
      238.424103
 20
       45.500000
 30
        0.000000
 11
      238.424103
 21
      -45.500000
 31
        0.000000
  0
ENDBLK
  0
BLOCK
  8
0
  2
BLK0005
 70
    64
 10
        0.000000
 20
        0.000000
  0
TEXT
  8
0
 62
  4
 10
      209.000000
 20
      -54.013302
 30
        0.000000
 40
        2.922500
  1
２３
 50
        0.000000
 41
        1.000000
 51
        0.000000
  7
BIGFONT
  0
LINE
  8
0
 62
  4
 10
      200.000000
 20
      -46.000000
 30
        0.000000
 11
      200.000000
 21
      -55.413303
 31
        0.000000
  0
LINE
  8
0
 62
  4
 10
      223.000000
 20
      -46.000000
 30
        0.000000
 11
      223.000000
 21
      -55.413303
 31
        0.000000
  0
LINE
  8
0
 62
  4
 10
      203.000000
 20
      -53.927902
 30
        0.000000
 11
      200.000000
 21
      -54.713303
 31
        0.000000
  0
LINE
  8
0
 62
  4
 10
      200.000000
 20
      -54.713303
 30
        0.000000
 11
      203.000000
 21
      -55.498703
 31
        0.000000
  0
LINE
  8
0
 62
  4
 10
      220.000000
 20
      -55.498703
 30
        0.000000
 11
      223.000000
 21
      -54.713303
 31
        0.000000
  0
LINE
  8
0
 62
  4
 10
      223.000000
 20
      -54.713303
 30
        0.000000
 11
      220.000000
 21
      -53.927902
 31
        0.000000
  0
LINE
  8
0
 62
  4
 10
      200.000000
 20
      -54.713303
 30
        0.000000
 11
      223.000000
 21
      -54.713303
 31
        0.000000
  0
ENDBLK
  0
BLOCK
  8
0
  2
BLK0006
 70
    64
 10
        0.000000
 20
        0.000000
  0
TEXT
  8
0
 62
  4
 10
      230.422012
 20
       -1.762913
 30
        0.000000
 40
        2.922500
  1
７０
 50
       90.000000
 41
        1.000000
 51
        0.000000
  7
BIGFONT
  0
LINE
  8
0
 62
  4
 10
      219.000000
 20
      -35.000000
 30
        0.000000
 11
      231.822006
 21
      -35.000000
 31
        0.000000
  0
LINE
  8
0
 62
  4
 10
      219.000000
 20
       35.000000
 30
        0.000000
 11
      231.822006
 21
       35.000000
 31
        0.000000
  0
LINE
  8
0
 62
  4
 10
      230.205704
 20
      -31.500000
 30
        0.000000
 11
      231.122009
 21
      -35.000000
 31
        0.000000
  0
LINE
  8
0
 62
  4
 10
      231.122009
 20
      -35.000000
 30
        0.000000
 11
      232.038315
 21
      -31.500000
 31
        0.000000
  0
LINE
  8
0
 62
  4
 10
      232.038315
 20
       31.500000
 30
        0.000000
 11
      231.122009
 21
       35.000000
 31
        0.000000
  0
LINE
  8
0
 62
  4
 10
      231.122009
 20
       35.000000
 30
        0.000000
 11
      230.205704
 21
       31.500000
 31
        0.000000
  0
LINE
  8
0
 62
  4
 10
      231.122009
 20
      -35.000000
 30
        0.000000
 11
      231.122009
 21
       35.000000
 31
        0.000000
  0
ENDBLK
  0
BLOCK
  8
0
  2
BLK0007
 70
    64
 10
        0.000000
 20
        0.000000
  0
TEXT
  8
0
 62
  4
 10
       -4.463214
 20
      -58.690716
 30
        0.000000
 40
        2.922500
  1
１３０
 50
        0.000000
 41
        1.000000
 51
        0.000000
  7
BIGFONT
  0
LINE
  8
0
 62
  4
 10
       65.000000
 20
      -43.000000
 30
        0.000000
 11
       65.000000
 21
      -60.090717
 31
        0.000000
  0
LINE
  8
0
 62
  4
 10
      -65.000000
 20
      -43.000000
 30
        0.000000
 11
      -65.000000
 21
      -60.090717
 31
        0.000000
  0
LINE
  8
0
 62
  4
 10
       62.000000
 20
      -60.176117
 30
        0.000000
 11
       65.000000
 21
      -59.390717
 31
        0.000000
  0
LINE
  8
0
 62
  4
 10
       65.000000
 20
      -59.390717
 30
        0.000000
 11
       62.000000
 21
      -58.605316
 31
        0.000000
  0
LINE
  8
0
 62
  4
 10
      -62.000000
 20
      -58.605316
 30
        0.000000
 11
      -65.000000
 21
      -59.390717
 31
        0.000000
  0
LINE
  8
0
 62
  4
 10
      -65.000000
 20
      -59.390717
 30
        0.000000
 11
      -62.000000
 21
      -60.176117
 31
        0.000000
  0
LINE
  8
0
 62
  4
 10
       65.000000
 20
      -59.390717
 30
        0.000000
 11
      -65.000000
 21
      -59.390717
 31
        0.000000
  0
ENDBLK
  0
BLOCK
  8
0
  2
BLK0008
 70
    64
 10
        0.000000
 20
        0.000000
  0
TEXT
  8
0
 62
  4
 10
       -5.409770
 20
      -67.183434
 30
        0.000000
 40
        2.922500
  1
１３８
 50
        0.000000
 41
        1.000000
 51
        0.000000
  7
BIGFONT
  0
LINE
  8
0
 62
  4
 10
       68.989998
 20
      -36.000000
 30
        0.000000
 11
       68.989998
 21
      -68.583435
 31
        0.000000
  0
LINE
  8
0
 62
  4
 10
      -69.010002
 20
      -36.000000
 30
        0.000000
 11
      -69.010002
 21
      -68.583435
 31
        0.000000
  0
LINE
  8
0
 62
  4
 10
       65.489998
 20
      -68.799736
 30
        0.000000
 11
       68.989998
 21
      -67.883438
 31
        0.000000
  0
LINE
  8
0
 62
  4
 10
       68.989998
 20
      -67.883438
 30
        0.000000
 11
       65.489998
 21
      -66.967140
 31
        0.000000
  0
LINE
  8
0
 62
  4
 10
      -65.510002
 20
      -66.967140
 30
        0.000000
 11
      -69.010002
 21
      -67.883438
 31
        0.000000
  0
LINE
  8
0
 62
  4
 10
      -69.010002
 20
      -67.883438
 30
        0.000000
 11
      -65.510002
 21
      -68.799736
 31
        0.000000
  0
LINE
  8
0
 62
  4
 10
       68.989998
 20
      -67.883438
 30
        0.000000
 11
      -69.010002
 21
      -67.883438
 31
        0.000000
  0
ENDBLK
  0
BLOCK
  8
0
  2
BLK0009
 70
    64
 10
        0.000000
 20
        0.000000
  0
TEXT
  8
0
 62
  4
 10
       -5.409770
 20
      -75.676147
 30
        0.000000
 40
        2.922500
  1
１４８
 50
        0.000000
 41
        1.000000
 51
        0.000000
  7
BIGFONT
  0
LINE
  8
0
 62
  4
 10
      -74.010002
 20
      -46.000000
 30
        0.000000
 11
      -74.010002
 21
      -77.076149
 31
        0.000000
  0
LINE
  8
0
 62
  4
 10
       73.989998
 20
      -46.000000
 30
        0.000000
 11
       73.989998
 21
      -77.076149
 31
        0.000000
  0
LINE
  8
0
 62
  4
 10
      -70.510002
 20
      -75.459854
 30
        0.000000
 11
      -74.010002
 21
      -76.376152
 31
        0.000000
  0
LINE
  8
0
 62
  4
 10
      -74.010002
 20
      -76.376152
 30
        0.000000
 11
      -70.510002
 21
      -77.292450
 31
        0.000000
  0
LINE
  8
0
 62
  4
 10
       70.489998
 20
      -77.292450
 30
        0.000000
 11
       73.989998
 21
      -76.376152
 31
        0.000000
  0
LINE
  8
0
 62
  4
 10
       73.989998
 20
      -76.376152
 30
        0.000000
 11
       70.489998
 21
      -75.459854
 31
        0.000000
  0
LINE
  8
0
 62
  4
 10
      -74.010002
 20
      -76.376152
 30
        0.000000
 11
       73.989998
 21
      -76.376152
 31
        0.000000
  0
ENDBLK
  0
BLOCK
  8
0
  2
BLK0010
 70
    64
 10
        0.000000
 20
        0.000000
  0
TEXT
  8
0
 62
  4
 10
       84.483582
 20
       -3.714785
 30
        0.000000
 40
        2.922500
  1
９２
 50
       90.000000
 41
        1.000000
 51
        0.000000
  7
BIGFONT
  0
LINE
  8
0
 62
  4
 10
       64.000000
 20
       46.000000
 30
        0.000000
 11
       85.883583
 21
       46.000000
 31
        0.000000
  0
LINE
  8
0
 62
  4
 10
       63.990002
 20
      -46.000000
 30
        0.000000
 11
       85.883583
 21
      -46.000000
 31
        0.000000
  0
LINE
  8
0
 62
  4
 10
       85.968987
 20
       43.000000
 30
        0.000000
 11
       85.183586
 21
       46.000000
 31
        0.000000
  0
LINE
  8
0
 62
  4
 10
       85.183586
 20
       46.000000
 30
        0.000000
 11
       84.398186
 21
       43.000000
 31
        0.000000
  0
LINE
  8
0
 62
  4
 10
       84.398186
 20
      -43.000000
 30
        0.000000
 11
       85.183586
 21
      -46.000000
 31
        0.000000
  0
LINE
  8
0
 62
  4
 10
       85.183586
 20
      -46.000000
 30
        0.000000
 11
       85.968987
 21
      -43.000000
 31
        0.000000
  0
LINE
  8
0
 62
  4
 10
       85.183586
 20
       46.000000
 30
        0.000000
 11
       85.183586
 21
      -46.000000
 31
        0.000000
  0
ENDBLK
  0
ENDSEC
  0
SECTION
  2
ENTITIES
  0
LINE
  8
1
 10
      211.400000
 20
      -45.500000
 30
        0.000000
 11
      211.400000
 21
       45.500000
 31
        0.000000
  0
LINE
  8
0
 10
       33.000000
 20
       80.400000
 30
        0.000000
 11
       33.000000
 21
       82.400000
 31
        0.000000
  0
LINE
  8
0
 10
       33.000000
 20
       82.400000
 30
        0.000000
 11
       58.000000
 21
       82.400000
 31
        0.000000
  0
LINE
  8
0
 10
       33.000000
 20
       80.400000
 30
        0.000000
 11
       58.000000
 21
       80.400000
 31
        0.000000
  0
LINE
  8
0
 10
       33.000000
 20
       75.400000
 30
        0.000000
 11
       33.000000
 21
       77.400000
 31
        0.000000
  0
LINE
  8
0
 10
       33.000000
 20
       75.400000
 30
        0.000000
 11
       58.000000
 21
       75.400000
 31
        0.000000
  0
LINE
  8
0
 10
       33.000000
 20
       77.400000
 30
        0.000000
 11
       58.000000
 21
       77.400000
 31
        0.000000
  0
LINE
  8
0
 10
       33.000000
 20
       92.400000
 30
        0.000000
 11
       58.000000
 21
       92.400000
 31
        0.000000
  0
LINE
  8
0
 10
       33.000000
 20
       90.400000
 30
        0.000000
 11
       58.000000
 21
       90.400000
 31
        0.000000
  0
LINE
  8
0
 10
       33.000000
 20
       90.400000
 30
        0.000000
 11
       33.000000
 21
       92.400000
 31
        0.000000
  0
LINE
  8
0
 10
       58.000000
 20
       85.400000
 30
        0.000000
 11
       58.000000
 21
       87.400000
 31
        0.000000
  0
LINE
  8
0
 10
       58.000000
 20
       80.400000
 30
        0.000000
 11
       58.000000
 21
       82.400000
 31
        0.000000
  0
LINE
  8
0
 10
       58.000000
 20
       75.400000
 30
        0.000000
 11
       58.000000
 21
       77.400000
 31
        0.000000
  0
LINE
  8
0
 10
       58.000000
 20
       90.400000
 30
        0.000000
 11
       58.000000
 21
       92.400000
 31
        0.000000
  0
CIRCLE
  8
0
 10
       34.000000
 20
       86.400000
 30
        0.000000
 40
        3.900000
  0
CIRCLE
  8
0
 10
       34.000000
 20
       86.400000
 30
        0.000000
 40
        2.750000
  0
LINE
  8
0
 10
       34.450000
 20
       88.114001
 30
        0.000000
 11
       33.550000
 21
       88.114001
 31
        0.000000
  0
LINE
  8
0
 10
       34.450000
 20
       84.814000
 30
        0.000000
 11
       33.550000
 21
       84.814000
 31
        0.000000
  0
LINE
  8
0
 10
       32.350000
 20
       86.014000
 30
        0.000000
 11
       32.350000
 21
       86.913998
 31
        0.000000
  0
LINE
  8
0
 10
       35.650000
 20
       86.014000
 30
        0.000000
 11
       35.650000
 21
       86.913998
 31
        0.000000
  0
LINE
  8
0
 10
       34.450000
 20
       84.814000
 30
        0.000000
 11
       34.450000
 21
       85.564001
 31
        0.000000
  0
LINE
  8
0
 10
       33.550000
 20
       84.814000
 30
        0.000000
 11
       33.550000
 21
       85.564001
 31
        0.000000
  0
LINE
  8
0
 10
       35.650000
 20
       86.913998
 30
        0.000000
 11
       34.900000
 21
       86.913998
 31
        0.000000
  0
LINE
  8
0
 10
       35.650000
 20
       86.014000
 30
        0.000000
 11
       34.900000
 21
       86.014000
 31
        0.000000
  0
LINE
  8
0
 10
       33.100000
 20
       86.913998
 30
        0.000000
 11
       32.350000
 21
       86.913998
 31
        0.000000
  0
LINE
  8
0
 10
       33.100000
 20
       86.014000
 30
        0.000000
 11
       32.350000
 21
       86.014000
 31
        0.000000
  0
LINE
  8
0
 10
       33.550000
 20
       87.363997
 30
        0.000000
 11
       33.550000
 21
       88.114001
 31
        0.000000
  0
LINE
  8
0
 10
       34.450000
 20
       87.363997
 30
        0.000000
 11
       34.450000
 21
       88.114001
 31
        0.000000
  0
ARC
  8
0
 10
       33.100000
 20
       87.363997
 30
        0.000000
 40
        0.449999
 50
      270.000000
 51
      360.000000
  0
ARC
  8
0
 10
       34.900000
 20
       87.363997
 30
        0.000000
 40
        0.450000
 50
      180.000015
 51
      270.000000
  0
ARC
  8
0
 10
       34.900000
 20
       85.564001
 30
        0.000000
 40
        0.449999
 50
       90.000000
 51
      180.000015
  0
ARC
  8
0
 10
       33.100000
 20
       85.564001
 30
        0.000000
 40
        0.450000
 50
        0.000000
 51
       90.000000
  0
LINE
  8
0
 10
       37.769615
 20
       85.400000
 30
        0.000000
 11
       58.000000
 21
       85.400000
 31
        0.000000
  0
LINE
  8
0
 10
       37.769615
 20
       87.400000
 30
        0.000000
 11
       58.000000
 21
       87.400000
 31
        0.000000
  0
LINE
  8
0
 10
       37.000000
 20
       90.400000
 30
        0.000000
 11
       37.000000
 21
       92.400000
 31
        0.000000
  0
TEXT
  8
0
 62
  2
 10
      -13.415453
 20
      118.616131
 30
        0.000000
 40
        3.340000
  1
ＩＶＳ３０Ｊ
 50
        0.000000
 41
        1.000000
 51
        0.000000
  7
BIGFONT
  0
INSERT
  8
0
 62
  4
  2
BLK0001
 10
        0.000000
 20
        0.000000
  0
INSERT
  8
0
 62
  4
  2
BLK0002
 10
        0.000000
 20
        0.000000
  0
INSERT
  8
0
 62
  4
  2
BLK0003
 10
        0.000000
 20
        0.000000
  0
INSERT
  8
0
 62
  4
  2
BLK0004
 10
        0.000000
 20
        0.000000
  0
INSERT
  8
0
 62
  4
  2
BLK0005
 10
        0.000000
 20
        0.000000
  0
INSERT
  8
0
 62
  4
  2
BLK0006
 10
        0.000000
 20
        0.000000
  0
INSERT
  8
0
 62
  4
  2
BLK0007
 10
        0.000000
 20
        0.000000
  0
INSERT
  8
0
 62
  4
  2
BLK0008
 10
        0.000000
 20
        0.000000
  0
INSERT
  8
0
 62
  4
  2
BLK0009
 10
        0.000000
 20
        0.000000
  0
INSERT
  8
0
 62
  4
  2
BLK0010
 10
        0.000000
 20
        0.000000
  0
LINE
  8
0
 10
      110.490000
 20
      -46.000000
 30
        0.000000
 11
      110.490000
 21
       46.000000
 31
        0.000000
  0
LINE
  8
0
 10
      109.990000
 20
      -46.000000
 30
        0.000000
 11
      109.990000
 21
       46.000000
 31
        0.000000
  0
LINE
  8
0
 10
      124.990000
 20
      -44.000000
 30
        0.000000
 11
      124.990000
 21
       44.000000
 31
        0.000000
  0
ARC
  8
0
 10
      122.990000
 20
       44.000000
 30
        0.000000
 40
        2.000000
 50
        0.000000
 51
       90.000000
  0
LINE
  8
0
 10
       96.990000
 20
       46.000000
 30
        0.000000
 11
      122.990000
 21
       46.000000
 31
        0.000000
  0
ARC
  8
0
 10
       96.990000
 20
       44.000000
 30
        0.000000
 40
        2.000000
 50
       90.000000
 51
      179.999990
  0
LINE
  8
0
 10
       94.990000
 20
      -44.000000
 30
        0.000000
 11
       94.990000
 21
       44.000000
 31
        0.000000
  0
LINE
  8
0
 10
      112.090000
 20
      -30.200000
 30
        0.000000
 11
      112.090000
 21
      -28.200000
 31
        0.000000
  0
LINE
  8
0
 10
      112.090000
 20
      -35.800000
 30
        0.000000
 11
      112.090000
 21
      -33.800000
 31
        0.000000
  0
LINE
  8
0
 10
      108.390000
 20
      -30.200000
 30
        0.000000
 11
      108.390000
 21
      -28.200000
 31
        0.000000
  0
LINE
  8
0
 10
      108.390000
 20
      -35.800000
 30
        0.000000
 11
      108.390000
 21
      -33.800000
 31
        0.000000
  0
LINE
  8
0
 10
      108.390000
 20
      -24.600000
 30
        0.000000
 11
      108.390000
 21
      -22.600000
 31
        0.000000
  0
LINE
  8
0
 10
      112.090000
 20
      -24.600000
 30
        0.000000
 11
      112.090000
 21
      -22.600000
 31
        0.000000
  0
LINE
  8
0
 10
      112.090000
 20
      -19.000000
 30
        0.000000
 11
      112.090000
 21
      -17.000000
 31
        0.000000
  0
LINE
  8
0
 10
      108.390000
 20
      -19.000000
 30
        0.000000
 11
      108.390000
 21
      -17.000000
 31
        0.000000
  0
LINE
  8
0
 10
      108.390000
 20
      -13.400000
 30
        0.000000
 11
      108.390000
 21
      -11.400000
 31
        0.000000
  0
LINE
  8
0
 10
      112.090000
 20
      -13.400000
 30
        0.000000
 11
      112.090000
 21
      -11.400000
 31
        0.000000
  0
LINE
  8
0
 10
      112.090000
 20
       -7.800000
 30
        0.000000
 11
      112.090000
 21
       -5.800000
 31
        0.000000
  0
LINE
  8
0
 10
      108.390000
 20
       -7.800000
 30
        0.000000
 11
      108.390000
 21
       -5.800000
 31
        0.000000
  0
LINE
  8
0
 10
      108.390000
 20
       -2.200000
 30
        0.000000
 11
      108.390000
 21
       -0.200000
 31
        0.000000
  0
LINE
  8
0
 10
      112.090000
 20
       -2.200000
 30
        0.000000
 11
      112.090000
 21
       -0.200000
 31
        0.000000
  0
LINE
  8
0
 10
      112.090000
 20
        3.400000
 30
        0.000000
 11
      112.090000
 21
        5.400000
 31
        0.000000
  0
LINE
  8
0
 10
      108.390000
 20
        3.400000
 30
        0.000000
 11
      108.390000
 21
        5.400000
 31
        0.000000
  0
LINE
  8
0
 10
      112.090000
 20
      -19.000000
 30
        0.000000
 11
      124.990000
 21
      -19.000000
 31
        0.000000
  0
LINE
  8
0
 10
      112.090000
 20
      -13.400000
 30
        0.000000
 11
      124.990000
 21
      -13.400000
 31
        0.000000
  0
LINE
  8
0
 10
      112.090000
 20
       -7.800000
 30
        0.000000
 11
      124.990000
 21
       -7.800000
 31
        0.000000
  0
LINE
  8
0
 10
      112.090000
 20
       -0.200000
 30
        0.000000
 11
      124.990000
 21
       -0.200000
 31
        0.000000
  0
LINE
  8
0
 10
      112.090000
 20
       -2.200000
 30
        0.000000
 11
      124.990000
 21
       -2.200000
 31
        0.000000
  0
LINE
  8
0
 10
      112.090000
 20
        3.400000
 30
        0.000000
 11
      124.990000
 21
        3.400000
 31
        0.000000
  0
LINE
  8
0
 10
      112.090000
 20
      -24.600000
 30
        0.000000
 11
      124.990000
 21
      -24.600000
 31
        0.000000
  0
LINE
  8
0
 10
      112.090000
 20
      -28.200000
 30
        0.000000
 11
      124.990000
 21
      -28.200000
 31
        0.000000
  0
LINE
  8
0
 10
      112.090000
 20
      -22.600000
 30
        0.000000
 11
      124.990000
 21
      -22.600000
 31
        0.000000
  0
LINE
  8
0
 10
      112.090000
 20
      -17.000000
 30
        0.000000
 11
      124.990000
 21
      -17.000000
 31
        0.000000
  0
LINE
  8
0
 10
      112.090000
 20
      -11.400000
 30
        0.000000
 11
      124.990000
 21
      -11.400000
 31
        0.000000
  0
LINE
  8
0
 10
      112.090000
 20
       -5.800000
 30
        0.000000
 11
      124.990000
 21
       -5.800000
 31
        0.000000
  0
LINE
  8
0
 10
      112.090000
 20
        5.400000
 30
        0.000000
 11
      124.990000
 21
        5.400000
 31
        0.000000
  0
LINE
  8
0
 10
      112.090000
 20
      -30.200000
 30
        0.000000
 11
      124.990000
 21
      -30.200000
 31
        0.000000
  0
LINE
  8
0
 10
      112.090000
 20
      -33.800000
 30
        0.000000
 11
      124.990000
 21
      -33.800000
 31
        0.000000
  0
LINE
  8
0
 10
      112.090000
 20
      -35.800000
 30
        0.000000
 11
      124.990000
 21
      -35.800000
 31
        0.000000
  0
ARC
  8
0
 10
      122.990000
 20
      -44.000000
 30
        0.000000
 40
        2.000000
 50
      270.000000
 51
      360.000000
  0
LINE
  8
0
 10
       94.990000
 20
      -19.000000
 30
        0.000000
 11
      108.390000
 21
      -19.000000
 31
        0.000000
  0
LINE
  8
0
 10
       94.990000
 20
      -13.400000
 30
        0.000000
 11
      108.390000
 21
      -13.400000
 31
        0.000000
  0
LINE
  8
0
 10
       94.990000
 20
       -7.800000
 30
        0.000000
 11
      108.390000
 21
       -7.800000
 31
        0.000000
  0
LINE
  8
0
 10
       94.990000
 20
       -0.200000
 30
        0.000000
 11
      108.390000
 21
       -0.200000
 31
        0.000000
  0
LINE
  8
0
 10
       94.990000
 20
       -2.200000
 30
        0.000000
 11
      108.390000
 21
       -2.200000
 31
        0.000000
  0
LINE
  8
0
 10
       94.990000
 20
        3.400000
 30
        0.000000
 11
      108.390000
 21
        3.400000
 31
        0.000000
  0
LINE
  8
0
 10
       94.990000
 20
      -24.600000
 30
        0.000000
 11
      108.390000
 21
      -24.600000
 31
        0.000000
  0
LINE
  8
0
 10
       94.990000
 20
      -28.200000
 30
        0.000000
 11
      108.390000
 21
      -28.200000
 31
        0.000000
  0
LINE
  8
0
 10
       94.990000
 20
      -22.600000
 30
        0.000000
 11
      108.390000
 21
      -22.600000
 31
        0.000000
  0
LINE
  8
0
 10
       94.990000
 20
      -17.000000
 30
        0.000000
 11
      108.390000
 21
      -17.000000
 31
        0.000000
  0
LINE
  8
0
 10
       94.990000
 20
      -11.400000
 30
        0.000000
 11
      108.390000
 21
      -11.400000
 31
        0.000000
  0
LINE
  8
0
 10
       94.990000
 20
       -5.800000
 30
        0.000000
 11
      108.390000
 21
       -5.800000
 31
        0.000000
  0
LINE
  8
0
 10
       94.990000
 20
        5.400000
 30
        0.000000
 11
      108.390000
 21
        5.400000
 31
        0.000000
  0
LINE
  8
0
 10
       94.990000
 20
      -33.800000
 30
        0.000000
 11
      108.390000
 21
      -33.800000
 31
        0.000000
  0
LINE
  8
0
 10
       94.990000
 20
      -35.800000
 30
        0.000000
 11
      108.390000
 21
      -35.800000
 31
        0.000000
  0
LINE
  8
0
 10
       94.990000
 20
      -30.200000
 30
        0.000000
 11
      108.390000
 21
      -30.200000
 31
        0.000000
  0
LINE
  8
0
 10
       96.990000
 20
      -46.000000
 30
        0.000000
 11
      122.990000
 21
      -46.000000
 31
        0.000000
  0
ARC
  8
0
 10
       96.990000
 20
      -44.000000
 30
        0.000000
 40
        2.000000
 50
      179.999990
 51
      270.000000
  0
LINE
  8
0
 10
      -65.000000
 20
     -101.500000
 30
        0.000000
 11
      -63.097393
 21
     -101.500000
 31
        0.000000
  0
ARC
  8
0
 10
       62.500000
 20
     -114.000000
 30
        0.000000
 40
        0.500000
 50
      270.000000
 51
      360.000000
  0
LINE
  8
0
 10
       63.000000
 20
     -114.000000
 30
        0.000000
 11
       63.000000
 21
      -89.000000
 31
        0.000000
  0
LINE
  8
0
 10
       62.500000
 20
     -114.500000
 30
        0.000000
 11
      -62.500000
 21
     -114.500000
 31
        0.000000
  0
ARC
  8
0
 10
      -62.500000
 20
     -114.000000
 30
        0.000000
 40
        0.500000
 50
      179.999990
 51
      270.000000
  0
LINE
  8
0
 10
      -63.000000
 20
     -114.000000
 30
        0.000000
 11
      -63.000000
 21
      -89.000000
 31
        0.000000
  0
ARC
  8
0
 10
      -62.500000
 20
      -89.000000
 30
        0.000000
 40
        0.500000
 50
       90.000000
 51
      179.999990
  0
LINE
  8
0
 10
      -62.500000
 20
      -88.500000
 30
        0.000000
 11
       62.500000
 21
      -88.500000
 31
        0.000000
  0
ARC
  8
0
 10
       62.500000
 20
      -89.000000
 30
        0.000000
 40
        0.500000
 50
        0.000000
 51
       90.000000
  0
CIRCLE
  8
0
 10
      -17.500000
 20
     -100.500000
 30
        0.000000
 40
        7.150000
  0
CIRCLE
  8
0
 10
      -17.500000
 20
     -100.500000
 30
        0.000000
 40
        6.150000
  0
CIRCLE
  8
0
 10
      -36.500000
 20
     -100.500000
 30
        0.000000
 40
        7.150000
  0
CIRCLE
  8
0
 10
      -36.500000
 20
     -100.500000
 30
        0.000000
 40
        6.150000
  0
ARC
  8
0
 10
       23.899988
 20
      -97.500024
 30
        0.000000
 40
        1.000000
 50
        0.000003
 51
       90.000000
  0
LINE
  8
0
 10
       24.899988
 20
     -108.000000
 30
        0.000000
 11
       24.899988
 21
      -97.500024
 31
        0.000000
  0
ARC
  8
0
 10
       23.899988
 20
     -108.000000
 30
        0.000000
 40
        1.000000
 50
      270.000000
 51
      360.000003
  0
ARC
  8
0
 10
       16.045007
 20
     -100.440015
 30
        0.000000
 40
        1.599976
 50
        0.000003
 51
       90.000000
  0
LINE
  8
0
 10
       17.645044
 20
     -100.440015
 30
        0.000000
 11
       16.781396
 21
     -105.337842
 31
        0.000000
  0
ARC
  8
0
 10
       15.205713
 20
     -105.060010
 30
        0.000000
 40
        1.599976
 50
      270.000000
 51
      350.000032
  0
CIRCLE
  8
0
 10
        5.390015
 20
     -104.169995
 30
        0.000000
 40
        0.500000
  0
CIRCLE
  8
0
 10
        8.130005
 20
     -104.169995
 30
        0.000000
 40
        0.500000
  0
CIRCLE
  8
0
 10
       10.869995
 20
     -104.169995
 30
        0.000000
 40
        0.500000
  0
CIRCLE
  8
0
 10
       13.619995
 20
     -104.169995
 30
        0.000000
 40
        0.500000
  0
CIRCLE
  8
0
 10
        4.020020
 20
     -101.330029
 30
        0.000000
 40
        0.500000
  0
CIRCLE
  8
0
 10
        6.760010
 20
     -101.330029
 30
        0.000000
 40
        0.500000
  0
CIRCLE
  8
0
 10
        9.500000
 20
     -101.330029
 30
        0.000000
 40
        0.500000
  0
CIRCLE
  8
0
 10
       12.239990
 20
     -101.330029
 30
        0.000000
 40
        0.500000
  0
CIRCLE
  8
0
 10
       14.989990
 20
     -101.330029
 30
        0.000000
 40
        0.500000
  0
LINE
  8
0
 10
       -0.494973
 20
     -101.306622
 30
        0.000000
 11
       -2.994973
 21
      -99.863263
 31
        0.000000
  0
LINE
  8
0
 10
       -2.994973
 20
      -99.863263
 30
        0.000000
 11
       -5.495034
 21
     -101.306622
 31
        0.000000
  0
LINE
  8
0
 10
       -5.495034
 20
     -101.306622
 30
        0.000000
 11
       -5.495034
 21
     -104.193372
 31
        0.000000
  0
LINE
  8
0
 10
       -5.495034
 20
     -104.193372
 30
        0.000000
 11
       -2.995034
 21
     -105.636761
 31
        0.000000
  0
LINE
  8
0
 10
       -2.995034
 20
     -105.636761
 30
        0.000000
 11
       -0.494973
 21
     -104.193372
 31
        0.000000
  0
LINE
  8
0
 10
       -0.494973
 20
     -104.193372
 30
        0.000000
 11
       -0.494973
 21
     -101.306622
 31
        0.000000
  0
CIRCLE
  8
0
 10
       -2.995034
 20
     -102.750012
 30
        0.000000
 40
        1.299988
  0
LINE
  8
0
 10
       21.994973
 20
      -99.863263
 30
        0.000000
 11
       19.494973
 21
     -101.306622
 31
        0.000000
  0
LINE
  8
0
 10
       24.494973
 20
     -101.306622
 30
        0.000000
 11
       21.994973
 21
      -99.863263
 31
        0.000000
  0
LINE
  8
0
 10
       24.494973
 20
     -104.193402
 30
        0.000000
 11
       24.494973
 21
     -101.306622
 31
        0.000000
  0
LINE
  8
0
 10
       21.994973
 20
     -105.636761
 30
        0.000000
 11
       24.494973
 21
     -104.193402
 31
        0.000000
  0
LINE
  8
0
 10
       19.494973
 20
     -104.193402
 30
        0.000000
 11
       21.994973
 21
     -105.636761
 31
        0.000000
  0
LINE
  8
0
 10
       19.494973
 20
     -101.306622
 30
        0.000000
 11
       19.494973
 21
     -104.193402
 31
        0.000000
  0
CIRCLE
  8
0
 10
       21.994973
 20
     -102.750012
 30
        0.000000
 40
        1.299988
  0
LINE
  8
0
 10
       15.205713
 20
     -106.660046
 30
        0.000000
 11
        3.794287
 21
     -106.660046
 31
        0.000000
  0
LINE
  8
0
 10
       16.045007
 20
      -98.840039
 30
        0.000000
 11
        2.954993
 21
      -98.840039
 31
        0.000000
  0
ARC
  8
0
 10
        3.794287
 20
     -105.060010
 30
        0.000000
 40
        1.599990
 50
      189.999899
 51
      270.000000
  0
LINE
  8
0
 10
        1.354956
 20
     -100.440015
 30
        0.000000
 11
        2.218604
 21
     -105.337842
 31
        0.000000
  0
ARC
  8
0
 10
        2.954993
 20
     -100.440015
 30
        0.000000
 40
        1.599976
 50
       90.000000
 51
      180.000011
  0
ARC
  8
0
 10
       -4.899988
 20
      -97.500024
 30
        0.000000
 40
        1.000000
 50
       90.000000
 51
      180.000011
  0
LINE
  8
0
 10
       -5.899988
 20
      -97.500024
 30
        0.000000
 11
       -5.899988
 21
     -108.000000
 31
        0.000000
  0
ARC
  8
0
 10
       -4.899988
 20
     -108.000000
 30
        0.000000
 40
        1.000000
 50
      180.000011
 51
      270.000000
  0
LINE
  8
0
 10
       23.899988
 20
      -96.500024
 30
        0.000000
 11
       -4.899988
 21
      -96.500024
 31
        0.000000
  0
LINE
  8
0
 10
       -4.899988
 20
     -109.000000
 30
        0.000000
 11
       23.899988
 21
     -109.000000
 31
        0.000000
  0
CIRCLE
  8
0
 10
      -53.500000
 20
     -102.500000
 30
        0.000000
 40
        1.500000
  0
CIRCLE
  8
0
 10
      -53.500000
 20
     -102.500000
 30
        0.000000
 40
        4.150000
  0
ARC
  8
0
 10
       57.899988
 20
      -97.500024
 30
        0.000000
 40
        1.000000
 50
        0.000003
 51
       90.000000
  0
LINE
  8
0
 10
       58.899988
 20
     -108.000000
 30
        0.000000
 11
       58.899988
 21
      -97.500024
 31
        0.000000
  0
ARC
  8
0
 10
       57.899988
 20
     -108.000000
 30
        0.000000
 40
        1.000000
 50
      270.000000
 51
      360.000003
  0
ARC
  8
0
 10
       50.045007
 20
     -100.440015
 30
        0.000000
 40
        1.599976
 50
        0.000003
 51
       90.000000
  0
LINE
  8
0
 10
       51.645044
 20
     -100.440015
 30
        0.000000
 11
       50.781396
 21
     -105.337842
 31
        0.000000
  0
ARC
  8
0
 10
       49.205713
 20
     -105.060010
 30
        0.000000
 40
        1.599976
 50
      270.000000
 51
      350.000032
  0
CIRCLE
  8
0
 10
       39.390015
 20
     -104.169995
 30
        0.000000
 40
        0.500000
  0
CIRCLE
  8
0
 10
       42.130005
 20
     -104.169995
 30
        0.000000
 40
        0.500000
  0
CIRCLE
  8
0
 10
       44.869995
 20
     -104.169995
 30
        0.000000
 40
        0.500000
  0
CIRCLE
  8
0
 10
       47.619995
 20
     -104.169995
 30
        0.000000
 40
        0.500000
  0
CIRCLE
  8
0
 10
       38.020020
 20
     -101.330029
 30
        0.000000
 40
        0.500000
  0
CIRCLE
  8
0
 10
       40.760010
 20
     -101.330029
 30
        0.000000
 40
        0.500000
  0
CIRCLE
  8
0
 10
       43.500000
 20
     -101.330029
 30
        0.000000
 40
        0.500000
  0
CIRCLE
  8
0
 10
       46.239990
 20
     -101.330029
 30
        0.000000
 40
        0.500000
  0
CIRCLE
  8
0
 10
       48.989990
 20
     -101.330029
 30
        0.000000
 40
        0.500000
  0
CIRCLE
  8
0
 10
       31.004966
 20
     -102.750012
 30
        0.000000
 40
        1.299988
  0
CIRCLE
  8
0
 10
       55.994973
 20
     -102.750012
 30
        0.000000
 40
        1.299988
  0
LINE
  8
0
 10
       49.205713
 20
     -106.660046
 30
        0.000000
 11
       37.794287
 21
     -106.660046
 31
        0.000000
  0
LINE
  8
0
 10
       50.045007
 20
      -98.840039
 30
        0.000000
 11
       36.954993
 21
      -98.840039
 31
        0.000000
  0
ARC
  8
0
 10
       37.794287
 20
     -105.060010
 30
        0.000000
 40
        1.599990
 50
      189.999899
 51
      270.000000
  0
LINE
  8
0
 10
       35.354956
 20
     -100.440015
 30
        0.000000
 11
       36.218604
 21
     -105.337842
 31
        0.000000
  0
ARC
  8
0
 10
       36.954993
 20
     -100.440015
 30
        0.000000
 40
        1.599976
 50
       90.000000
 51
      180.000011
  0
ARC
  8
0
 10
       29.100012
 20
      -97.500024
 30
        0.000000
 40
        1.000000
 50
       90.000000
 51
      180.000011
  0
LINE
  8
0
 10
       28.100012
 20
      -97.500024
 30
        0.000000
 11
       28.100012
 21
     -108.000000
 31
        0.000000
  0
ARC
  8
0
 10
       29.100012
 20
     -108.000000
 30
        0.000000
 40
        1.000000
 50
      180.000011
 51
      270.000000
  0
LINE
  8
0
 10
       57.899988
 20
      -96.500024
 30
        0.000000
 11
       29.100012
 21
      -96.500024
 31
        0.000000
  0
LINE
  8
0
 10
       29.100012
 20
     -109.000000
 30
        0.000000
 11
       57.899988
 21
     -109.000000
 31
        0.000000
  0
LINE
  8
0
 10
      -65.000000
 20
     -101.500000
 30
        0.000000
 11
      -65.000000
 21
     -114.500000
 31
        0.000000
  0
LINE
  8
0
 10
       29.000000
 20
      -96.750012
 30
        0.000000
 11
       58.000000
 21
      -96.750012
 31
        0.000000
  0
ARC
  8
0
 10
       29.000000
 20
      -97.750012
 30
        0.000000
 40
        1.000000
 50
       90.000000
 51
      179.999990
  0
LINE
  8
0
 10
       28.000000
 20
     -107.750012
 30
        0.000000
 11
       28.000000
 21
      -97.750012
 31
        0.000000
  0
ARC
  8
0
 10
       29.000000
 20
     -107.750012
 30
        0.000000
 40
        1.000000
 50
      179.999990
 51
      270.000000
  0
LINE
  8
0
 10
       29.000000
 20
     -108.750012
 30
        0.000000
 11
       58.000000
 21
     -108.750012
 31
        0.000000
  0
ARC
  8
0
 10
       58.000000
 20
     -107.750012
 30
        0.000000
 40
        1.000000
 50
      270.000000
 51
      360.000000
  0
LINE
  8
0
 10
       59.000000
 20
     -107.750012
 30
        0.000000
 11
       59.000000
 21
      -97.750012
 31
        0.000000
  0
ARC
  8
0
 10
       58.000000
 20
      -97.750012
 30
        0.000000
 40
        1.000000
 50
        0.000000
 51
       90.000000
  0
CIRCLE
  8
0
 10
      -53.500000
 20
     -102.500000
 30
        0.000000
 40
        5.500000
  0
LINE
  8
0
 10
       -5.000000
 20
      -96.750012
 30
        0.000000
 11
       24.000000
 21
      -96.750012
 31
        0.000000
  0
ARC
  8
0
 10
       -5.000000
 20
      -97.750012
 30
        0.000000
 40
        1.000000
 50
       90.000000
 51
      179.999990
  0
LINE
  8
0
 10
       -6.000000
 20
     -107.750012
 30
        0.000000
 11
       -6.000000
 21
      -97.750012
 31
        0.000000
  0
ARC
  8
0
 10
       -5.000000
 20
     -107.750012
 30
        0.000000
 40
        1.000000
 50
      179.999990
 51
      270.000000
  0
LINE
  8
0
 10
       -5.000000
 20
     -108.750012
 30
        0.000000
 11
       24.000000
 21
     -108.750012
 31
        0.000000
  0
ARC
  8
0
 10
       24.000000
 20
     -107.750012
 30
        0.000000
 40
        1.000000
 50
      270.000000
 51
      360.000000
  0
LINE
  8
0
 10
       25.000000
 20
     -107.750012
 30
        0.000000
 11
       25.000000
 21
      -97.750012
 31
        0.000000
  0
ARC
  8
0
 10
       24.000000
 20
      -97.750012
 30
        0.000000
 40
        1.000000
 50
        0.000000
 51
       90.000000
  0
CIRCLE
  8
0
 10
      -36.500000
 20
     -100.500000
 30
        0.000000
 40
        8.800000
  0
ARC
  8
0
 10
      -63.000000
 20
     -114.500000
 30
        0.000000
 40
        2.000000
 50
      179.999990
 51
      270.000000
  0
LINE
  8
0
 10
      -65.000000
 20
     -101.500000
 30
        0.000000
 11
      -65.000000
 21
     -114.500000
 31
        0.000000
  0
LINE
  8
0
 10
       63.000000
 20
     -116.500000
 30
        0.000000
 11
      -63.000000
 21
     -116.500000
 31
        0.000000
  0
ARC
  8
0
 10
      -63.000000
 20
      -88.500000
 30
        0.000000
 40
        2.000000
 50
       90.000000
 51
      179.999990
  0
LINE
  8
0
 10
      -65.000000
 20
     -101.500000
 30
        0.000000
 11
      -65.000000
 21
      -88.500000
 31
        0.000000
  0
LINE
  8
0
 10
      -63.000000
 20
      -86.500000
 30
        0.000000
 11
       63.000000
 21
      -86.500000
 31
        0.000000
  0
ARC
  8
0
 10
       63.000000
 20
     -114.500000
 30
        0.000000
 40
        2.000000
 50
      270.000000
 51
      360.000000
  0
LINE
  8
0
 10
       65.000000
 20
     -101.500000
 30
        0.000000
 11
       65.000000
 21
     -114.500000
 31
        0.000000
  0
ARC
  8
0
 10
       63.000000
 20
      -88.500000
 30
        0.000000
 40
        2.000000
 50
        0.000000
 51
       90.000000
  0
LINE
  8
0
 10
       65.000000
 20
     -101.500000
 30
        0.000000
 11
       65.000000
 21
      -88.500000
 31
        0.000000
  0
CIRCLE
  8
0
 10
      -17.500000
 20
     -100.500000
 30
        0.000000
 40
        8.800000
  0
LINE
  8
0
 10
       65.000000
 20
     -101.500000
 30
        0.000000
 11
       63.097393
 21
     -101.500000
 31
        0.000000
  0
LINE
  8
0
 10
       63.000000
 20
       46.000000
 30
        0.000000
 11
      -63.000000
 21
       46.000000
 31
        0.000000
  0
LINE
  8
0
 10
       27.889988
 20
       70.500000
 30
        0.000000
 11
       62.500000
 21
       70.500000
 31
        0.000000
  0
LINE
  8
0
 10
      -62.500000
 20
       70.500000
 30
        0.000000
 11
      -59.300000
 21
       70.500000
 31
        0.000000
  0
LINE
  8
0
 10
       27.889988
 20
       82.124264
 30
        0.000000
 11
       27.889988
 21
       68.500000
 31
        0.000000
  0
LINE
  8
0
 10
      -59.300000
 20
       82.124264
 30
        0.000000
 11
      -59.300000
 21
       68.500000
 31
        0.000000
  0
LINE
  8
0
 10
       24.889988
 20
       91.000000
 30
        0.000000
 11
      -57.300000
 21
       91.000000
 31
        0.000000
  0
LINE
  8
0
 10
       25.589988
 20
       71.500000
 30
        0.000000
 11
      -57.000000
 21
       71.500000
 31
        0.000000
  0
LINE
  8
0
 10
      -57.000000
 20
       91.000000
 30
        0.000000
 11
       25.589988
 21
       91.000000
 31
        0.000000
  0
LINE
  8
0
 10
      -52.659970
 20
       79.850000
 30
        0.000000
 11
      -52.659970
 21
       71.500000
 31
        0.000000
  0
LINE
  8
0
 10
      -45.039975
 20
       79.850000
 30
        0.000000
 11
      -45.039975
 21
       71.500000
 31
        0.000000
  0
LINE
  8
0
 10
      -51.139996
 20
       79.850000
 30
        0.000000
 11
      -51.139996
 21
       71.500000
 31
        0.000000
  0
LINE
  8
0
 10
      -37.419980
 20
       79.850000
 30
        0.000000
 11
      -37.419980
 21
       71.500000
 31
        0.000000
  0
LINE
  8
0
 10
      -43.520001
 20
       79.850000
 30
        0.000000
 11
      -43.520001
 21
       71.500000
 31
        0.000000
  0
LINE
  8
0
 10
      -29.799984
 20
       79.850000
 30
        0.000000
 11
      -29.799984
 21
       71.500000
 31
        0.000000
  0
LINE
  8
0
 10
      -35.900006
 20
       79.850000
 30
        0.000000
 11
      -35.900006
 21
       71.500000
 31
        0.000000
  0
LINE
  8
0
 10
      -22.179989
 20
       79.850000
 30
        0.000000
 11
      -22.179989
 21
       71.500000
 31
        0.000000
  0
LINE
  8
0
 10
      -28.279995
 20
       79.850000
 30
        0.000000
 11
      -28.279995
 21
       71.500000
 31
        0.000000
  0
LINE
  8
0
 10
      -14.559979
 20
       79.850000
 30
        0.000000
 11
      -14.559979
 21
       71.500000
 31
        0.000000
  0
LINE
  8
0
 10
      -20.660000
 20
       79.850000
 30
        0.000000
 11
      -20.660000
 21
       71.500000
 31
        0.000000
  0
LINE
  8
0
 10
       -6.939984
 20
       79.850000
 30
        0.000000
 11
       -6.939984
 21
       71.500000
 31
        0.000000
  0
LINE
  8
0
 10
      -13.040005
 20
       79.850000
 30
        0.000000
 11
      -13.040005
 21
       71.500000
 31
        0.000000
  0
LINE
  8
0
 10
        0.680011
 20
       79.850000
 30
        0.000000
 11
        0.680011
 21
       71.500000
 31
        0.000000
  0
LINE
  8
0
 10
       -5.420010
 20
       79.850000
 30
        0.000000
 11
       -5.420010
 21
       71.500000
 31
        0.000000
  0
LINE
  8
0
 10
        8.300022
 20
       79.850000
 30
        0.000000
 11
        8.300022
 21
       71.500000
 31
        0.000000
  0
LINE
  8
0
 10
        2.200000
 20
       79.850000
 30
        0.000000
 11
        2.200000
 21
       71.500000
 31
        0.000000
  0
LINE
  8
0
 10
        9.819995
 20
       79.850000
 30
        0.000000
 11
        9.819995
 21
       71.500000
 31
        0.000000
  0
LINE
  8
0
 10
       17.439991
 20
       79.850000
 30
        0.000000
 11
       17.439991
 21
       71.500000
 31
        0.000000
  0
LINE
  8
0
 10
       15.920017
 20
       79.850000
 30
        0.000000
 11
       15.920017
 21
       71.500000
 31
        0.000000
  0
LINE
  8
0
 10
       23.540012
 20
       79.850000
 30
        0.000000
 11
       23.540012
 21
       71.500000
 31
        0.000000
  0
LINE
  8
0
 10
      -50.089993
 20
       78.500000
 30
        0.000000
 11
      -50.089993
 21
       79.350000
 31
        0.000000
  0
LINE
  8
0
 10
      -46.089993
 20
       78.500000
 30
        0.000000
 11
      -46.089993
 21
       79.350000
 31
        0.000000
  0
LINE
  8
0
 10
      -42.469998
 20
       78.500000
 30
        0.000000
 11
      -42.469998
 21
       79.350000
 31
        0.000000
  0
LINE
  8
0
 10
      -38.469998
 20
       78.500000
 30
        0.000000
 11
      -38.469998
 21
       79.350000
 31
        0.000000
  0
LINE
  8
0
 10
      -34.850003
 20
       78.500000
 30
        0.000000
 11
      -34.850003
 21
       79.350000
 31
        0.000000
  0
LINE
  8
0
 10
      -30.850003
 20
       78.500000
 30
        0.000000
 11
      -30.850003
 21
       79.350000
 31
        0.000000
  0
LINE
  8
0
 10
      -27.230008
 20
       78.500000
 30
        0.000000
 11
      -27.230008
 21
       79.350000
 31
        0.000000
  0
LINE
  8
0
 10
      -23.230008
 20
       78.500000
 30
        0.000000
 11
      -23.230008
 21
       79.350000
 31
        0.000000
  0
LINE
  8
0
 10
      -19.609997
 20
       78.500000
 30
        0.000000
 11
      -19.609997
 21
       79.350000
 31
        0.000000
  0
LINE
  8
0
 10
      -15.609997
 20
       78.500000
 30
        0.000000
 11
      -15.609997
 21
       79.350000
 31
        0.000000
  0
LINE
  8
0
 10
      -11.990002
 20
       78.500000
 30
        0.000000
 11
      -11.990002
 21
       79.350000
 31
        0.000000
  0
LINE
  8
0
 10
       -7.990002
 20
       78.500000
 30
        0.000000
 11
       -7.990002
 21
       79.350000
 31
        0.000000
  0
LINE
  8
0
 10
       -4.370007
 20
       78.500000
 30
        0.000000
 11
       -4.370007
 21
       79.350000
 31
        0.000000
  0
LINE
  8
0
 10
       -0.370007
 20
       78.500000
 30
        0.000000
 11
       -0.370007
 21
       79.350000
 31
        0.000000
  0
LINE
  8
0
 10
        3.250003
 20
       78.500000
 30
        0.000000
 11
        3.250003
 21
       79.350000
 31
        0.000000
  0
LINE
  8
0
 10
        7.250003
 20
       78.500000
 30
        0.000000
 11
        7.250003
 21
       79.350000
 31
        0.000000
  0
LINE
  8
0
 10
       14.869998
 20
       78.500000
 30
        0.000000
 11
       14.869998
 21
       79.350000
 31
        0.000000
  0
LINE
  8
0
 10
       10.869998
 20
       78.500000
 30
        0.000000
 11
       10.869998
 21
       79.350000
 31
        0.000000
  0
LINE
  8
0
 10
       22.489994
 20
       78.500000
 30
        0.000000
 11
       22.489994
 21
       79.350000
 31
        0.000000
  0
LINE
  8
0
 10
       18.489994
 20
       78.500000
 30
        0.000000
 11
       18.489994
 21
       79.350000
 31
        0.000000
  0
LINE
  8
0
 10
      -54.949948
 20
       87.000000
 30
        0.000000
 11
      -54.949948
 21
       71.500000
 31
        0.000000
  0
LINE
  8
0
 10
       23.539981
 20
       87.000000
 30
        0.000000
 11
       23.539981
 21
       71.500000
 31
        0.000000
  0
LINE
  8
0
 10
       23.540012
 20
       87.000000
 30
        0.000000
 11
       23.540012
 21
       71.500000
 31
        0.000000
  0
LINE
  8
0
 10
      -50.089993
 20
       75.000000
 30
        0.000000
 11
      -50.089993
 21
       76.000000
 31
        0.000000
  0
ARC
  8
0
 10
      -49.589993
 20
       75.000000
 30
        0.000000
 40
        0.500000
 50
      179.999990
 51
      270.000000
  0
LINE
  8
0
 10
      -48.339993
 20
       74.500000
 30
        0.000000
 11
      -48.339993
 21
       75.000000
 31
        0.000000
  0
LINE
  8
0
 10
      -48.339993
 20
       74.500000
 30
        0.000000
 11
      -49.589993
 21
       74.500000
 31
        0.000000
  0
LINE
  8
0
 10
      -49.589993
 20
       76.000000
 30
        0.000000
 11
      -49.589993
 21
       76.500000
 31
        0.000000
  0
LINE
  8
0
 10
      -46.589993
 20
       74.500000
 30
        0.000000
 11
      -47.839993
 21
       74.500000
 31
        0.000000
  0
ARC
  8
0
 10
      -46.589993
 20
       75.000000
 30
        0.000000
 40
        0.500000
 50
      270.000000
 51
      360.000005
  0
LINE
  8
0
 10
      -46.089993
 20
       75.000000
 30
        0.000000
 11
      -46.089993
 21
       76.000000
 31
        0.000000
  0
LINE
  8
0
 10
      -47.839993
 20
       74.500000
 30
        0.000000
 11
      -47.839993
 21
       75.000000
 31
        0.000000
  0
LINE
  8
0
 10
      -46.589993
 20
       76.000000
 30
        0.000000
 11
      -46.589993
 21
       76.500000
 31
        0.000000
  0
LINE
  8
0
 10
      -46.089993
 20
       76.000000
 30
        0.000000
 11
      -50.089993
 21
       76.000000
 31
        0.000000
  0
LINE
  8
0
 10
      -46.089993
 20
       76.000000
 30
        0.000000
 11
      -50.089993
 21
       76.000000
 31
        0.000000
  0
LINE
  8
0
 10
      -45.040005
 20
       77.500000
 30
        0.000000
 11
      -51.139996
 21
       77.500000
 31
        0.000000
  0
LINE
  8
0
 10
      -45.040005
 20
       76.500000
 30
        0.000000
 11
      -51.139996
 21
       76.500000
 31
        0.000000
  0
LINE
  8
0
 10
      -47.839993
 20
       75.000000
 30
        0.000000
 11
      -48.339993
 21
       75.000000
 31
        0.000000
  0
LINE
  8
0
 10
      -42.469998
 20
       75.000000
 30
        0.000000
 11
      -42.469998
 21
       76.000000
 31
        0.000000
  0
ARC
  8
0
 10
      -41.969998
 20
       75.000000
 30
        0.000000
 40
        0.500000
 50
      179.999990
 51
      270.000000
  0
LINE
  8
0
 10
      -40.719998
 20
       74.500000
 30
        0.000000
 11
      -40.719998
 21
       75.000000
 31
        0.000000
  0
LINE
  8
0
 10
      -40.719998
 20
       74.500000
 30
        0.000000
 11
      -41.969998
 21
       74.500000
 31
        0.000000
  0
LINE
  8
0
 10
      -41.969998
 20
       76.000000
 30
        0.000000
 11
      -41.969998
 21
       76.500000
 31
        0.000000
  0
LINE
  8
0
 10
      -38.969998
 20
       74.500000
 30
        0.000000
 11
      -40.219998
 21
       74.500000
 31
        0.000000
  0
ARC
  8
0
 10
      -38.969998
 20
       75.000000
 30
        0.000000
 40
        0.500000
 50
      270.000000
 51
      360.000005
  0
LINE
  8
0
 10
      -38.469998
 20
       75.000000
 30
        0.000000
 11
      -38.469998
 21
       76.000000
 31
        0.000000
  0
LINE
  8
0
 10
      -40.219998
 20
       74.500000
 30
        0.000000
 11
      -40.219998
 21
       75.000000
 31
        0.000000
  0
LINE
  8
0
 10
      -38.969998
 20
       76.000000
 30
        0.000000
 11
      -38.969998
 21
       76.500000
 31
        0.000000
  0
LINE
  8
0
 10
      -38.469998
 20
       76.000000
 30
        0.000000
 11
      -42.469998
 21
       76.000000
 31
        0.000000
  0
LINE
  8
0
 10
      -38.469998
 20
       76.000000
 30
        0.000000
 11
      -42.469998
 21
       76.000000
 31
        0.000000
  0
LINE
  8
0
 10
      -37.420010
 20
       77.500000
 30
        0.000000
 11
      -43.520001
 21
       77.500000
 31
        0.000000
  0
LINE
  8
0
 10
      -37.420010
 20
       76.500000
 30
        0.000000
 11
      -43.520001
 21
       76.500000
 31
        0.000000
  0
LINE
  8
0
 10
      -40.219998
 20
       75.000000
 30
        0.000000
 11
      -40.719998
 21
       75.000000
 31
        0.000000
  0
LINE
  8
0
 10
      -34.850003
 20
       75.000000
 30
        0.000000
 11
      -34.850003
 21
       76.000000
 31
        0.000000
  0
ARC
  8
0
 10
      -34.350003
 20
       75.000000
 30
        0.000000
 40
        0.500000
 50
      179.999990
 51
      270.000000
  0
LINE
  8
0
 10
      -33.100003
 20
       74.500000
 30
        0.000000
 11
      -33.100003
 21
       75.000000
 31
        0.000000
  0
LINE
  8
0
 10
      -33.100003
 20
       74.500000
 30
        0.000000
 11
      -34.350003
 21
       74.500000
 31
        0.000000
  0
LINE
  8
0
 10
      -34.350003
 20
       76.000000
 30
        0.000000
 11
      -34.350003
 21
       76.500000
 31
        0.000000
  0
LINE
  8
0
 10
      -31.350003
 20
       74.500000
 30
        0.000000
 11
      -32.600003
 21
       74.500000
 31
        0.000000
  0
ARC
  8
0
 10
      -31.350003
 20
       75.000000
 30
        0.000000
 40
        0.500000
 50
      270.000000
 51
      360.000005
  0
LINE
  8
0
 10
      -30.850003
 20
       75.000000
 30
        0.000000
 11
      -30.850003
 21
       76.000000
 31
        0.000000
  0
LINE
  8
0
 10
      -32.600003
 20
       74.500000
 30
        0.000000
 11
      -32.600003
 21
       75.000000
 31
        0.000000
  0
LINE
  8
0
 10
      -31.350003
 20
       76.000000
 30
        0.000000
 11
      -31.350003
 21
       76.500000
 31
        0.000000
  0
LINE
  8
0
 10
      -30.850003
 20
       76.000000
 30
        0.000000
 11
      -34.850003
 21
       76.000000
 31
        0.000000
  0
LINE
  8
0
 10
      -30.850003
 20
       76.000000
 30
        0.000000
 11
      -34.850003
 21
       76.000000
 31
        0.000000
  0
LINE
  8
0
 10
      -29.800015
 20
       77.500000
 30
        0.000000
 11
      -35.900006
 21
       77.500000
 31
        0.000000
  0
LINE
  8
0
 10
      -29.800015
 20
       76.500000
 30
        0.000000
 11
      -35.900006
 21
       76.500000
 31
        0.000000
  0
LINE
  8
0
 10
      -32.600003
 20
       75.000000
 30
        0.000000
 11
      -33.100003
 21
       75.000000
 31
        0.000000
  0
LINE
  8
0
 10
      -27.230008
 20
       75.000000
 30
        0.000000
 11
      -27.230008
 21
       76.000000
 31
        0.000000
  0
ARC
  8
0
 10
      -26.730008
 20
       75.000000
 30
        0.000000
 40
        0.500000
 50
      179.999990
 51
      270.000000
  0
LINE
  8
0
 10
      -25.480008
 20
       74.500000
 30
        0.000000
 11
      -25.480008
 21
       75.000000
 31
        0.000000
  0
LINE
  8
0
 10
      -25.480008
 20
       74.500000
 30
        0.000000
 11
      -26.730008
 21
       74.500000
 31
        0.000000
  0
LINE
  8
0
 10
      -26.730008
 20
       76.000000
 30
        0.000000
 11
      -26.730008
 21
       76.500000
 31
        0.000000
  0
LINE
  8
0
 10
      -23.730008
 20
       74.500000
 30
        0.000000
 11
      -24.980008
 21
       74.500000
 31
        0.000000
  0
ARC
  8
0
 10
      -23.730008
 20
       75.000000
 30
        0.000000
 40
        0.500000
 50
      270.000000
 51
      360.000005
  0
LINE
  8
0
 10
      -23.230008
 20
       75.000000
 30
        0.000000
 11
      -23.230008
 21
       76.000000
 31
        0.000000
  0
LINE
  8
0
 10
      -24.980008
 20
       74.500000
 30
        0.000000
 11
      -24.980008
 21
       75.000000
 31
        0.000000
  0
LINE
  8
0
 10
      -23.730008
 20
       76.000000
 30
        0.000000
 11
      -23.730008
 21
       76.500000
 31
        0.000000
  0
LINE
  8
0
 10
      -23.230008
 20
       76.000000
 30
        0.000000
 11
      -27.230008
 21
       76.000000
 31
        0.000000
  0
LINE
  8
0
 10
      -23.230008
 20
       76.000000
 30
        0.000000
 11
      -27.230008
 21
       76.000000
 31
        0.000000
  0
LINE
  8
0
 10
      -22.180020
 20
       77.500000
 30
        0.000000
 11
      -28.279995
 21
       77.500000
 31
        0.000000
  0
LINE
  8
0
 10
      -22.180020
 20
       76.500000
 30
        0.000000
 11
      -28.279995
 21
       76.500000
 31
        0.000000
  0
LINE
  8
0
 10
      -24.980008
 20
       75.000000
 30
        0.000000
 11
      -25.480008
 21
       75.000000
 31
        0.000000
  0
LINE
  8
0
 10
      -19.609997
 20
       75.000000
 30
        0.000000
 11
      -19.609997
 21
       76.000000
 31
        0.000000
  0
ARC
  8
0
 10
      -19.109997
 20
       75.000000
 30
        0.000000
 40
        0.500000
 50
      179.999990
 51
      270.000000
  0
LINE
  8
0
 10
      -17.859997
 20
       74.500000
 30
        0.000000
 11
      -17.859997
 21
       75.000000
 31
        0.000000
  0
LINE
  8
0
 10
      -17.859997
 20
       74.500000
 30
        0.000000
 11
      -19.109997
 21
       74.500000
 31
        0.000000
  0
LINE
  8
0
 10
      -19.109997
 20
       76.000000
 30
        0.000000
 11
      -19.109997
 21
       76.500000
 31
        0.000000
  0
LINE
  8
0
 10
      -16.109997
 20
       74.500000
 30
        0.000000
 11
      -17.359997
 21
       74.500000
 31
        0.000000
  0
ARC
  8
0
 10
      -16.109997
 20
       75.000000
 30
        0.000000
 40
        0.500000
 50
      270.000000
 51
      360.000005
  0
LINE
  8
0
 10
      -15.609997
 20
       75.000000
 30
        0.000000
 11
      -15.609997
 21
       76.000000
 31
        0.000000
  0
LINE
  8
0
 10
      -17.359997
 20
       74.500000
 30
        0.000000
 11
      -17.359997
 21
       75.000000
 31
        0.000000
  0
LINE
  8
0
 10
      -16.109997
 20
       76.000000
 30
        0.000000
 11
      -16.109997
 21
       76.500000
 31
        0.000000
  0
LINE
  8
0
 10
      -15.609997
 20
       76.000000
 30
        0.000000
 11
      -19.609997
 21
       76.000000
 31
        0.000000
  0
LINE
  8
0
 10
      -15.609997
 20
       76.000000
 30
        0.000000
 11
      -19.609997
 21
       76.000000
 31
        0.000000
  0
LINE
  8
0
 10
      -14.560009
 20
       77.500000
 30
        0.000000
 11
      -20.660000
 21
       77.500000
 31
        0.000000
  0
LINE
  8
0
 10
      -14.560009
 20
       76.500000
 30
        0.000000
 11
      -20.660000
 21
       76.500000
 31
        0.000000
  0
LINE
  8
0
 10
      -17.359997
 20
       75.000000
 30
        0.000000
 11
      -17.859997
 21
       75.000000
 31
        0.000000
  0
LINE
  8
0
 10
      -11.990002
 20
       75.000000
 30
        0.000000
 11
      -11.990002
 21
       76.000000
 31
        0.000000
  0
ARC
  8
0
 10
      -11.490002
 20
       75.000000
 30
        0.000000
 40
        0.500000
 50
      179.999990
 51
      270.000000
  0
LINE
  8
0
 10
      -10.240002
 20
       74.500000
 30
        0.000000
 11
      -10.240002
 21
       75.000000
 31
        0.000000
  0
LINE
  8
0
 10
      -10.240002
 20
       74.500000
 30
        0.000000
 11
      -11.490002
 21
       74.500000
 31
        0.000000
  0
LINE
  8
0
 10
      -11.490002
 20
       76.000000
 30
        0.000000
 11
      -11.490002
 21
       76.500000
 31
        0.000000
  0
LINE
  8
0
 10
       -8.490002
 20
       74.500000
 30
        0.000000
 11
       -9.740002
 21
       74.500000
 31
        0.000000
  0
ARC
  8
0
 10
       -8.490002
 20
       75.000000
 30
        0.000000
 40
        0.500000
 50
      270.000000
 51
      360.000005
  0
LINE
  8
0
 10
       -7.990002
 20
       75.000000
 30
        0.000000
 11
       -7.990002
 21
       76.000000
 31
        0.000000
  0
LINE
  8
0
 10
       -9.740002
 20
       74.500000
 30
        0.000000
 11
       -9.740002
 21
       75.000000
 31
        0.000000
  0
LINE
  8
0
 10
       -8.490002
 20
       76.000000
 30
        0.000000
 11
       -8.490002
 21
       76.500000
 31
        0.000000
  0
LINE
  8
0
 10
       -7.990002
 20
       76.000000
 30
        0.000000
 11
      -11.990002
 21
       76.000000
 31
        0.000000
  0
LINE
  8
0
 10
       -7.990002
 20
       76.000000
 30
        0.000000
 11
      -11.990002
 21
       76.000000
 31
        0.000000
  0
LINE
  8
0
 10
       -6.940014
 20
       77.500000
 30
        0.000000
 11
      -13.040005
 21
       77.500000
 31
        0.000000
  0
LINE
  8
0
 10
       -6.940014
 20
       76.500000
 30
        0.000000
 11
      -13.040005
 21
       76.500000
 31
        0.000000
  0
LINE
  8
0
 10
       -9.740002
 20
       75.000000
 30
        0.000000
 11
      -10.240002
 21
       75.000000
 31
        0.000000
  0
LINE
  8
0
 10
       -4.370007
 20
       75.000000
 30
        0.000000
 11
       -4.370007
 21
       76.000000
 31
        0.000000
  0
ARC
  8
0
 10
       -3.870007
 20
       75.000000
 30
        0.000000
 40
        0.500000
 50
      179.999990
 51
      270.000000
  0
LINE
  8
0
 10
       -2.620007
 20
       74.500000
 30
        0.000000
 11
       -2.620007
 21
       75.000000
 31
        0.000000
  0
LINE
  8
0
 10
       -2.620007
 20
       74.500000
 30
        0.000000
 11
       -3.870007
 21
       74.500000
 31
        0.000000
  0
LINE
  8
0
 10
       -3.870007
 20
       76.000000
 30
        0.000000
 11
       -3.870007
 21
       76.500000
 31
        0.000000
  0
LINE
  8
0
 10
       -0.870007
 20
       74.500000
 30
        0.000000
 11
       -2.120007
 21
       74.500000
 31
        0.000000
  0
ARC
  8
0
 10
       -0.870007
 20
       75.000000
 30
        0.000000
 40
        0.500000
 50
      270.000000
 51
      360.000005
  0
LINE
  8
0
 10
       -0.370007
 20
       75.000000
 30
        0.000000
 11
       -0.370007
 21
       76.000000
 31
        0.000000
  0
LINE
  8
0
 10
       -2.120007
 20
       74.500000
 30
        0.000000
 11
       -2.120007
 21
       75.000000
 31
        0.000000
  0
LINE
  8
0
 10
       -0.870007
 20
       76.000000
 30
        0.000000
 11
       -0.870007
 21
       76.500000
 31
        0.000000
  0
LINE
  8
0
 10
       -0.370007
 20
       76.000000
 30
        0.000000
 11
       -4.370007
 21
       76.000000
 31
        0.000000
  0
LINE
  8
0
 10
       -0.370007
 20
       76.000000
 30
        0.000000
 11
       -4.370007
 21
       76.000000
 31
        0.000000
  0
LINE
  8
0
 10
        0.679981
 20
       77.500000
 30
        0.000000
 11
       -5.420010
 21
       77.500000
 31
        0.000000
  0
LINE
  8
0
 10
        0.679981
 20
       76.500000
 30
        0.000000
 11
       -5.420010
 21
       76.500000
 31
        0.000000
  0
LINE
  8
0
 10
       -2.120007
 20
       75.000000
 30
        0.000000
 11
       -2.620007
 21
       75.000000
 31
        0.000000
  0
LINE
  8
0
 10
        3.250003
 20
       75.000000
 30
        0.000000
 11
        3.250003
 21
       76.000000
 31
        0.000000
  0
ARC
  8
0
 10
        3.750003
 20
       75.000000
 30
        0.000000
 40
        0.500000
 50
      179.999990
 51
      270.000000
  0
LINE
  8
0
 10
        5.000003
 20
       74.500000
 30
        0.000000
 11
        5.000003
 21
       75.000000
 31
        0.000000
  0
LINE
  8
0
 10
        5.000003
 20
       74.500000
 30
        0.000000
 11
        3.750003
 21
       74.500000
 31
        0.000000
  0
LINE
  8
0
 10
        3.750003
 20
       76.000000
 30
        0.000000
 11
        3.750003
 21
       76.500000
 31
        0.000000
  0
LINE
  8
0
 10
        6.750003
 20
       74.500000
 30
        0.000000
 11
        5.500003
 21
       74.500000
 31
        0.000000
  0
ARC
  8
0
 10
        6.750003
 20
       75.000000
 30
        0.000000
 40
        0.500000
 50
      270.000000
 51
      360.000005
  0
LINE
  8
0
 10
        7.250003
 20
       75.000000
 30
        0.000000
 11
        7.250003
 21
       76.000000
 31
        0.000000
  0
LINE
  8
0
 10
        5.500003
 20
       74.500000
 30
        0.000000
 11
        5.500003
 21
       75.000000
 31
        0.000000
  0
LINE
  8
0
 10
        6.750003
 20
       76.000000
 30
        0.000000
 11
        6.750003
 21
       76.500000
 31
        0.000000
  0
LINE
  8
0
 10
        7.250003
 20
       76.000000
 30
        0.000000
 11
        3.250003
 21
       76.000000
 31
        0.000000
  0
LINE
  8
0
 10
        7.250003
 20
       76.000000
 30
        0.000000
 11
        3.250003
 21
       76.000000
 31
        0.000000
  0
LINE
  8
0
 10
        8.299991
 20
       77.500000
 30
        0.000000
 11
        2.200000
 21
       77.500000
 31
        0.000000
  0
LINE
  8
0
 10
        8.299991
 20
       76.500000
 30
        0.000000
 11
        2.200000
 21
       76.500000
 31
        0.000000
  0
LINE
  8
0
 10
        5.500003
 20
       75.000000
 30
        0.000000
 11
        5.000003
 21
       75.000000
 31
        0.000000
  0
LINE
  8
0
 10
       18.489994
 20
       75.000000
 30
        0.000000
 11
       18.489994
 21
       76.000000
 31
        0.000000
  0
LINE
  8
0
 10
       13.119998
 20
       75.000000
 30
        0.000000
 11
       12.619998
 21
       75.000000
 31
        0.000000
  0
LINE
  8
0
 10
       15.919986
 20
       76.500000
 30
        0.000000
 11
        9.819995
 21
       76.500000
 31
        0.000000
  0
LINE
  8
0
 10
       15.919986
 20
       77.500000
 30
        0.000000
 11
        9.819995
 21
       77.500000
 31
        0.000000
  0
LINE
  8
0
 10
       14.869998
 20
       76.000000
 30
        0.000000
 11
       10.869998
 21
       76.000000
 31
        0.000000
  0
LINE
  8
0
 10
       14.869998
 20
       76.000000
 30
        0.000000
 11
       10.869998
 21
       76.000000
 31
        0.000000
  0
LINE
  8
0
 10
       14.369998
 20
       76.000000
 30
        0.000000
 11
       14.369998
 21
       76.500000
 31
        0.000000
  0
LINE
  8
0
 10
       13.119998
 20
       74.500000
 30
        0.000000
 11
       13.119998
 21
       75.000000
 31
        0.000000
  0
LINE
  8
0
 10
       14.869998
 20
       75.000000
 30
        0.000000
 11
       14.869998
 21
       76.000000
 31
        0.000000
  0
ARC
  8
0
 10
       14.369998
 20
       75.000000
 30
        0.000000
 40
        0.500000
 50
      270.000000
 51
      360.000005
  0
LINE
  8
0
 10
       14.369998
 20
       74.500000
 30
        0.000000
 11
       13.119998
 21
       74.500000
 31
        0.000000
  0
LINE
  8
0
 10
       11.369998
 20
       76.000000
 30
        0.000000
 11
       11.369998
 21
       76.500000
 31
        0.000000
  0
LINE
  8
0
 10
       12.619998
 20
       74.500000
 30
        0.000000
 11
       11.369998
 21
       74.500000
 31
        0.000000
  0
LINE
  8
0
 10
       12.619998
 20
       74.500000
 30
        0.000000
 11
       12.619998
 21
       75.000000
 31
        0.000000
  0
ARC
  8
0
 10
       11.369998
 20
       75.000000
 30
        0.000000
 40
        0.500000
 50
      179.999990
 51
      270.000000
  0
LINE
  8
0
 10
       10.869998
 20
       75.000000
 30
        0.000000
 11
       10.869998
 21
       76.000000
 31
        0.000000
  0
LINE
  8
0
 10
       23.539981
 20
       78.500000
 30
        0.000000
 11
       23.539981
 21
       71.500000
 31
        0.000000
  0
LINE
  8
0
 10
       20.739994
 20
       75.000000
 30
        0.000000
 11
       20.239994
 21
       75.000000
 31
        0.000000
  0
LINE
  8
0
 10
       23.539981
 20
       76.500000
 30
        0.000000
 11
       17.439991
 21
       76.500000
 31
        0.000000
  0
LINE
  8
0
 10
       23.539981
 20
       77.500000
 30
        0.000000
 11
       17.439991
 21
       77.500000
 31
        0.000000
  0
LINE
  8
0
 10
       22.489994
 20
       76.000000
 30
        0.000000
 11
       18.489994
 21
       76.000000
 31
        0.000000
  0
LINE
  8
0
 10
       22.489994
 20
       76.000000
 30
        0.000000
 11
       18.489994
 21
       76.000000
 31
        0.000000
  0
LINE
  8
0
 10
       21.989994
 20
       76.000000
 30
        0.000000
 11
       21.989994
 21
       76.500000
 31
        0.000000
  0
LINE
  8
0
 10
       20.739994
 20
       74.500000
 30
        0.000000
 11
       20.739994
 21
       75.000000
 31
        0.000000
  0
LINE
  8
0
 10
       22.489994
 20
       75.000000
 30
        0.000000
 11
       22.489994
 21
       76.000000
 31
        0.000000
  0
ARC
  8
0
 10
       21.989994
 20
       75.000000
 30
        0.000000
 40
        0.500000
 50
      270.000000
 51
      360.000005
  0
LINE
  8
0
 10
       21.989994
 20
       74.500000
 30
        0.000000
 11
       20.739994
 21
       74.500000
 31
        0.000000
  0
LINE
  8
0
 10
       18.989994
 20
       76.000000
 30
        0.000000
 11
       18.989994
 21
       76.500000
 31
        0.000000
  0
LINE
  8
0
 10
       20.239994
 20
       74.500000
 30
        0.000000
 11
       18.989994
 21
       74.500000
 31
        0.000000
  0
LINE
  8
0
 10
       20.239994
 20
       74.500000
 30
        0.000000
 11
       20.239994
 21
       75.000000
 31
        0.000000
  0
ARC
  8
0
 10
       18.989994
 20
       75.000000
 30
        0.000000
 40
        0.500000
 50
      179.999990
 51
      270.000000
  0
LINE
  8
0
 10
      -45.040005
 20
       78.500000
 30
        0.000000
 11
      -51.139996
 21
       78.500000
 31
        0.000000
  0
LINE
  8
0
 10
      -45.040005
 20
       78.000000
 30
        0.000000
 11
      -51.139996
 21
       78.000000
 31
        0.000000
  0
LINE
  8
0
 10
      -37.420010
 20
       78.500000
 30
        0.000000
 11
      -43.520001
 21
       78.500000
 31
        0.000000
  0
LINE
  8
0
 10
      -37.420010
 20
       78.000000
 30
        0.000000
 11
      -43.520001
 21
       78.000000
 31
        0.000000
  0
LINE
  8
0
 10
      -29.800015
 20
       78.500000
 30
        0.000000
 11
      -35.900006
 21
       78.500000
 31
        0.000000
  0
LINE
  8
0
 10
      -29.800015
 20
       78.000000
 30
        0.000000
 11
      -35.900006
 21
       78.000000
 31
        0.000000
  0
LINE
  8
0
 10
      -22.180020
 20
       78.500000
 30
        0.000000
 11
      -28.279995
 21
       78.500000
 31
        0.000000
  0
LINE
  8
0
 10
      -22.180020
 20
       78.000000
 30
        0.000000
 11
      -28.279995
 21
       78.000000
 31
        0.000000
  0
LINE
  8
0
 10
      -14.560009
 20
       78.500000
 30
        0.000000
 11
      -20.660000
 21
       78.500000
 31
        0.000000
  0
LINE
  8
0
 10
      -14.560009
 20
       78.000000
 30
        0.000000
 11
      -20.660000
 21
       78.000000
 31
        0.000000
  0
LINE
  8
0
 10
       -6.940014
 20
       78.500000
 30
        0.000000
 11
      -13.040005
 21
       78.500000
 31
        0.000000
  0
LINE
  8
0
 10
       -6.940014
 20
       78.000000
 30
        0.000000
 11
      -13.040005
 21
       78.000000
 31
        0.000000
  0
LINE
  8
0
 10
        0.679981
 20
       78.500000
 30
        0.000000
 11
       -5.420010
 21
       78.500000
 31
        0.000000
  0
LINE
  8
0
 10
        0.679981
 20
       78.000000
 30
        0.000000
 11
       -5.420010
 21
       78.000000
 31
        0.000000
  0
LINE
  8
0
 10
        8.299991
 20
       78.500000
 30
        0.000000
 11
        2.200000
 21
       78.500000
 31
        0.000000
  0
LINE
  8
0
 10
        8.299991
 20
       78.000000
 30
        0.000000
 11
        2.200000
 21
       78.000000
 31
        0.000000
  0
LINE
  8
0
 10
       15.919986
 20
       78.000000
 30
        0.000000
 11
        9.819995
 21
       78.000000
 31
        0.000000
  0
LINE
  8
0
 10
       15.919986
 20
       78.500000
 30
        0.000000
 11
        9.819995
 21
       78.500000
 31
        0.000000
  0
LINE
  8
0
 10
       23.539981
 20
       78.000000
 30
        0.000000
 11
       17.439991
 21
       78.000000
 31
        0.000000
  0
LINE
  8
0
 10
       23.539981
 20
       78.500000
 30
        0.000000
 11
       17.439991
 21
       78.500000
 31
        0.000000
  0
LINE
  8
0
 10
      -54.949948
 20
       87.000000
 30
        0.000000
 11
      -54.949948
 21
       79.850000
 31
        0.000000
  0
LINE
  8
0
 10
       21.250019
 20
       87.000000
 30
        0.000000
 11
       21.250019
 21
       79.850000
 31
        0.000000
  0
LINE
  8
0
 10
      -48.849957
 20
       87.000000
 30
        0.000000
 11
      -48.849957
 21
       79.850000
 31
        0.000000
  0
LINE
  8
0
 10
      -41.229962
 20
       87.000000
 30
        0.000000
 11
      -41.229962
 21
       79.850000
 31
        0.000000
  0
LINE
  8
0
 10
      -47.329968
 20
       87.000000
 30
        0.000000
 11
      -47.329968
 21
       79.850000
 31
        0.000000
  0
LINE
  8
0
 10
      -33.609967
 20
       87.000000
 30
        0.000000
 11
      -33.609967
 21
       79.850000
 31
        0.000000
  0
LINE
  8
0
 10
      -39.709973
 20
       87.000000
 30
        0.000000
 11
      -39.709973
 21
       79.850000
 31
        0.000000
  0
LINE
  8
0
 10
      -25.989956
 20
       87.000000
 30
        0.000000
 11
      -25.989956
 21
       79.850000
 31
        0.000000
  0
LINE
  8
0
 10
      -32.089962
 20
       87.000000
 30
        0.000000
 11
      -32.089962
 21
       79.850000
 31
        0.000000
  0
LINE
  8
0
 10
      -18.369961
 20
       87.000000
 30
        0.000000
 11
      -18.369961
 21
       79.850000
 31
        0.000000
  0
LINE
  8
0
 10
      -24.469967
 20
       87.000000
 30
        0.000000
 11
      -24.469967
 21
       79.850000
 31
        0.000000
  0
LINE
  8
0
 10
      -10.749966
 20
       87.000000
 30
        0.000000
 11
      -10.749966
 21
       79.850000
 31
        0.000000
  0
LINE
  8
0
 10
      -16.849972
 20
       87.000000
 30
        0.000000
 11
      -16.849972
 21
       79.850000
 31
        0.000000
  0
LINE
  8
0
 10
       -3.129971
 20
       87.000000
 30
        0.000000
 11
       -3.129971
 21
       79.850000
 31
        0.000000
  0
LINE
  8
0
 10
       -9.229977
 20
       87.000000
 30
        0.000000
 11
       -9.229977
 21
       79.850000
 31
        0.000000
  0
LINE
  8
0
 10
        4.490039
 20
       87.000000
 30
        0.000000
 11
        4.490039
 21
       79.850000
 31
        0.000000
  0
LINE
  8
0
 10
       -1.609967
 20
       87.000000
 30
        0.000000
 11
       -1.609967
 21
       79.850000
 31
        0.000000
  0
LINE
  8
0
 10
        6.010028
 20
       87.000000
 30
        0.000000
 11
        6.010028
 21
       79.850000
 31
        0.000000
  0
LINE
  8
0
 10
       12.110034
 20
       87.000000
 30
        0.000000
 11
       12.110034
 21
       79.850000
 31
        0.000000
  0
LINE
  8
0
 10
       13.630023
 20
       87.000000
 30
        0.000000
 11
       13.630023
 21
       79.850000
 31
        0.000000
  0
LINE
  8
0
 10
       19.730030
 20
       87.000000
 30
        0.000000
 11
       19.730030
 21
       79.850000
 31
        0.000000
  0
LINE
  8
0
 10
      -52.659970
 20
       79.850000
 30
        0.000000
 11
      -54.949948
 21
       79.850000
 31
        0.000000
  0
LINE
  8
0
 10
      -47.040005
 20
       79.350000
 30
        0.000000
 11
      -48.339993
 21
       79.350000
 31
        0.000000
  0
LINE
  8
0
 10
      -46.089993
 20
       79.350000
 30
        0.000000
 11
      -50.089993
 21
       79.350000
 31
        0.000000
  0
LINE
  8
0
 10
      -45.040005
 20
       79.850000
 30
        0.000000
 11
      -51.139996
 21
       79.850000
 31
        0.000000
  0
LINE
  8
0
 10
      -39.420010
 20
       79.350000
 30
        0.000000
 11
      -40.719998
 21
       79.350000
 31
        0.000000
  0
LINE
  8
0
 10
      -38.469998
 20
       79.350000
 30
        0.000000
 11
      -42.469998
 21
       79.350000
 31
        0.000000
  0
LINE
  8
0
 10
      -37.420010
 20
       79.850000
 30
        0.000000
 11
      -43.520001
 21
       79.850000
 31
        0.000000
  0
LINE
  8
0
 10
      -31.800015
 20
       79.350000
 30
        0.000000
 11
      -33.100003
 21
       79.350000
 31
        0.000000
  0
LINE
  8
0
 10
      -30.850003
 20
       79.350000
 30
        0.000000
 11
      -34.850003
 21
       79.350000
 31
        0.000000
  0
LINE
  8
0
 10
      -29.800015
 20
       79.850000
 30
        0.000000
 11
      -35.900006
 21
       79.850000
 31
        0.000000
  0
LINE
  8
0
 10
      -24.180020
 20
       79.350000
 30
        0.000000
 11
      -25.480008
 21
       79.350000
 31
        0.000000
  0
LINE
  8
0
 10
      -23.230008
 20
       79.350000
 30
        0.000000
 11
      -27.230008
 21
       79.350000
 31
        0.000000
  0
LINE
  8
0
 10
      -22.180020
 20
       79.850000
 30
        0.000000
 11
      -28.279995
 21
       79.850000
 31
        0.000000
  0
LINE
  8
0
 10
      -16.560009
 20
       79.350000
 30
        0.000000
 11
      -17.859997
 21
       79.350000
 31
        0.000000
  0
LINE
  8
0
 10
      -15.609997
 20
       79.350000
 30
        0.000000
 11
      -19.609997
 21
       79.350000
 31
        0.000000
  0
LINE
  8
0
 10
      -14.560009
 20
       79.850000
 30
        0.000000
 11
      -20.660000
 21
       79.850000
 31
        0.000000
  0
LINE
  8
0
 10
       -8.940014
 20
       79.350000
 30
        0.000000
 11
      -10.240002
 21
       79.350000
 31
        0.000000
  0
LINE
  8
0
 10
       -7.990002
 20
       79.350000
 30
        0.000000
 11
      -11.990002
 21
       79.350000
 31
        0.000000
  0
LINE
  8
0
 10
       -6.940014
 20
       79.850000
 30
        0.000000
 11
      -13.040005
 21
       79.850000
 31
        0.000000
  0
LINE
  8
0
 10
       -1.320019
 20
       79.350000
 30
        0.000000
 11
       -2.620007
 21
       79.350000
 31
        0.000000
  0
LINE
  8
0
 10
       -0.370007
 20
       79.350000
 30
        0.000000
 11
       -4.370007
 21
       79.350000
 31
        0.000000
  0
LINE
  8
0
 10
        0.679981
 20
       79.850000
 30
        0.000000
 11
       -5.420010
 21
       79.850000
 31
        0.000000
  0
LINE
  8
0
 10
        6.299991
 20
       79.350000
 30
        0.000000
 11
        5.000003
 21
       79.350000
 31
        0.000000
  0
LINE
  8
0
 10
        7.250003
 20
       79.350000
 30
        0.000000
 11
        3.250003
 21
       79.350000
 31
        0.000000
  0
LINE
  8
0
 10
        8.299991
 20
       79.850000
 30
        0.000000
 11
        2.200000
 21
       79.850000
 31
        0.000000
  0
LINE
  8
0
 10
       15.919986
 20
       79.850000
 30
        0.000000
 11
        9.819995
 21
       79.850000
 31
        0.000000
  0
LINE
  8
0
 10
       23.539981
 20
       79.850000
 30
        0.000000
 11
       17.439991
 21
       79.850000
 31
        0.000000
  0
LINE
  8
0
 10
       14.869998
 20
       79.350000
 30
        0.000000
 11
       10.869998
 21
       79.350000
 31
        0.000000
  0
LINE
  8
0
 10
       13.919986
 20
       79.350000
 30
        0.000000
 11
       12.619998
 21
       79.350000
 31
        0.000000
  0
LINE
  8
0
 10
       22.489994
 20
       79.350000
 30
        0.000000
 11
       18.489994
 21
       79.350000
 31
        0.000000
  0
LINE
  8
0
 10
       21.539981
 20
       79.350000
 30
        0.000000
 11
       20.239994
 21
       79.350000
 31
        0.000000
  0
LINE
  8
0
 10
       19.730030
 20
       85.000000
 30
        0.000000
 11
       13.630023
 21
       85.000000
 31
        0.000000
  0
LINE
  8
0
 10
       19.730030
 20
       86.000000
 30
        0.000000
 11
       13.630023
 21
       86.000000
 31
        0.000000
  0
LINE
  8
0
 10
       16.930027
 20
       83.000000
 30
        0.000000
 11
       16.930027
 21
       83.500000
 31
        0.000000
  0
ARC
  8
0
 10
       18.180027
 20
       83.500000
 30
        0.000000
 40
        0.500000
 50
      270.000000
 51
      360.000005
  0
LINE
  8
0
 10
       18.180027
 20
       83.000000
 30
        0.000000
 11
       16.930027
 21
       83.000000
 31
        0.000000
  0
LINE
  8
0
 10
       14.680027
 20
       83.500000
 30
        0.000000
 11
       14.680027
 21
       84.500000
 31
        0.000000
  0
LINE
  8
0
 10
       18.680027
 20
       83.500000
 30
        0.000000
 11
       18.680027
 21
       84.500000
 31
        0.000000
  0
LINE
  8
0
 10
       18.680027
 20
       84.500000
 30
        0.000000
 11
       14.680027
 21
       84.500000
 31
        0.000000
  0
LINE
  8
0
 10
       18.680027
 20
       84.500000
 30
        0.000000
 11
       14.680027
 21
       84.500000
 31
        0.000000
  0
LINE
  8
0
 10
       23.539981
 20
       87.000000
 30
        0.000000
 11
       21.250019
 21
       87.000000
 31
        0.000000
  0
LINE
  8
0
 10
      -49.899960
 20
       84.500000
 30
        0.000000
 11
      -53.899960
 21
       84.500000
 31
        0.000000
  0
LINE
  8
0
 10
      -49.899960
 20
       84.500000
 30
        0.000000
 11
      -53.899960
 21
       84.500000
 31
        0.000000
  0
LINE
  8
0
 10
      -49.899960
 20
       83.500000
 30
        0.000000
 11
      -49.899960
 21
       84.500000
 31
        0.000000
  0
LINE
  8
0
 10
      -53.899960
 20
       83.500000
 30
        0.000000
 11
      -53.899960
 21
       84.500000
 31
        0.000000
  0
LINE
  8
0
 10
      -50.399960
 20
       83.000000
 30
        0.000000
 11
      -51.649960
 21
       83.000000
 31
        0.000000
  0
ARC
  8
0
 10
      -50.399960
 20
       83.500000
 30
        0.000000
 40
        0.500000
 50
      270.000000
 51
      360.000005
  0
LINE
  8
0
 10
      -51.649960
 20
       83.000000
 30
        0.000000
 11
      -51.649960
 21
       83.500000
 31
        0.000000
  0
LINE
  8
0
 10
      -48.849957
 20
       86.000000
 30
        0.000000
 11
      -54.949963
 21
       86.000000
 31
        0.000000
  0
LINE
  8
0
 10
      -48.849957
 20
       85.000000
 30
        0.000000
 11
      -54.949963
 21
       85.000000
 31
        0.000000
  0
LINE
  8
0
 10
      -48.849957
 20
       86.500000
 30
        0.000000
 11
      -54.949963
 21
       86.500000
 31
        0.000000
  0
LINE
  8
0
 10
      -49.899960
 20
       89.000000
 30
        0.000000
 11
      -53.899960
 21
       89.000000
 31
        0.000000
  0
LINE
  8
0
 10
      -49.899960
 20
       87.000000
 30
        0.000000
 11
      -49.899960
 21
       89.000000
 31
        0.000000
  0
LINE
  8
0
 10
      -53.899960
 20
       87.000000
 30
        0.000000
 11
      -53.899960
 21
       89.000000
 31
        0.000000
  0
LINE
  8
0
 10
      -48.849957
 20
       87.000000
 30
        0.000000
 11
      -54.949963
 21
       87.000000
 31
        0.000000
  0
LINE
  8
0
 10
      -50.399960
 20
       84.500000
 30
        0.000000
 11
      -50.399960
 21
       85.000000
 31
        0.000000
  0
LINE
  8
0
 10
      -53.399960
 20
       84.500000
 30
        0.000000
 11
      -53.399960
 21
       85.000000
 31
        0.000000
  0
ARC
  8
0
 10
      -53.399960
 20
       83.500000
 30
        0.000000
 40
        0.500000
 50
      179.999990
 51
      270.000000
  0
LINE
  8
0
 10
      -52.149960
 20
       83.000000
 30
        0.000000
 11
      -53.399960
 21
       83.000000
 31
        0.000000
  0
LINE
  8
0
 10
      -52.149960
 20
       83.000000
 30
        0.000000
 11
      -52.149960
 21
       83.500000
 31
        0.000000
  0
LINE
  8
0
 10
      -51.649960
 20
       83.500000
 30
        0.000000
 11
      -52.149960
 21
       83.500000
 31
        0.000000
  0
LINE
  8
0
 10
      -42.279965
 20
       84.500000
 30
        0.000000
 11
      -46.279965
 21
       84.500000
 31
        0.000000
  0
LINE
  8
0
 10
      -42.279965
 20
       84.500000
 30
        0.000000
 11
      -46.279965
 21
       84.500000
 31
        0.000000
  0
LINE
  8
0
 10
      -42.279965
 20
       83.500000
 30
        0.000000
 11
      -42.279965
 21
       84.500000
 31
        0.000000
  0
LINE
  8
0
 10
      -46.279965
 20
       83.500000
 30
        0.000000
 11
      -46.279965
 21
       84.500000
 31
        0.000000
  0
LINE
  8
0
 10
      -42.779965
 20
       83.000000
 30
        0.000000
 11
      -44.029965
 21
       83.000000
 31
        0.000000
  0
ARC
  8
0
 10
      -42.779965
 20
       83.500000
 30
        0.000000
 40
        0.500000
 50
      270.000000
 51
      360.000005
  0
LINE
  8
0
 10
      -44.029965
 20
       83.000000
 30
        0.000000
 11
      -44.029965
 21
       83.500000
 31
        0.000000
  0
LINE
  8
0
 10
      -41.229962
 20
       86.000000
 30
        0.000000
 11
      -47.329968
 21
       86.000000
 31
        0.000000
  0
LINE
  8
0
 10
      -41.229962
 20
       85.000000
 30
        0.000000
 11
      -47.329968
 21
       85.000000
 31
        0.000000
  0
LINE
  8
0
 10
      -41.229962
 20
       86.500000
 30
        0.000000
 11
      -47.329968
 21
       86.500000
 31
        0.000000
  0
LINE
  8
0
 10
      -42.279965
 20
       89.000000
 30
        0.000000
 11
      -46.279965
 21
       89.000000
 31
        0.000000
  0
LINE
  8
0
 10
      -42.279965
 20
       87.000000
 30
        0.000000
 11
      -42.279965
 21
       89.000000
 31
        0.000000
  0
LINE
  8
0
 10
      -46.279965
 20
       87.000000
 30
        0.000000
 11
      -46.279965
 21
       89.000000
 31
        0.000000
  0
LINE
  8
0
 10
      -41.229962
 20
       87.000000
 30
        0.000000
 11
      -47.329968
 21
       87.000000
 31
        0.000000
  0
LINE
  8
0
 10
      -42.779965
 20
       84.500000
 30
        0.000000
 11
      -42.779965
 21
       85.000000
 31
        0.000000
  0
LINE
  8
0
 10
      -45.779965
 20
       84.500000
 30
        0.000000
 11
      -45.779965
 21
       85.000000
 31
        0.000000
  0
ARC
  8
0
 10
      -45.779965
 20
       83.500000
 30
        0.000000
 40
        0.500000
 50
      179.999990
 51
      270.000000
  0
LINE
  8
0
 10
      -44.529965
 20
       83.000000
 30
        0.000000
 11
      -45.779965
 21
       83.000000
 31
        0.000000
  0
LINE
  8
0
 10
      -44.529965
 20
       83.000000
 30
        0.000000
 11
      -44.529965
 21
       83.500000
 31
        0.000000
  0
LINE
  8
0
 10
      -44.029965
 20
       83.500000
 30
        0.000000
 11
      -44.529965
 21
       83.500000
 31
        0.000000
  0
LINE
  8
0
 10
      -34.659970
 20
       84.500000
 30
        0.000000
 11
      -38.659970
 21
       84.500000
 31
        0.000000
  0
LINE
  8
0
 10
      -34.659970
 20
       84.500000
 30
        0.000000
 11
      -38.659970
 21
       84.500000
 31
        0.000000
  0
LINE
  8
0
 10
      -34.659970
 20
       83.500000
 30
        0.000000
 11
      -34.659970
 21
       84.500000
 31
        0.000000
  0
LINE
  8
0
 10
      -38.659970
 20
       83.500000
 30
        0.000000
 11
      -38.659970
 21
       84.500000
 31
        0.000000
  0
LINE
  8
0
 10
      -35.159970
 20
       83.000000
 30
        0.000000
 11
      -36.409970
 21
       83.000000
 31
        0.000000
  0
ARC
  8
0
 10
      -35.159970
 20
       83.500000
 30
        0.000000
 40
        0.500000
 50
      270.000000
 51
      360.000005
  0
LINE
  8
0
 10
      -36.409970
 20
       83.000000
 30
        0.000000
 11
      -36.409970
 21
       83.500000
 31
        0.000000
  0
LINE
  8
0
 10
      -33.609967
 20
       86.000000
 30
        0.000000
 11
      -39.709973
 21
       86.000000
 31
        0.000000
  0
LINE
  8
0
 10
      -33.609967
 20
       85.000000
 30
        0.000000
 11
      -39.709973
 21
       85.000000
 31
        0.000000
  0
LINE
  8
0
 10
      -33.609967
 20
       86.500000
 30
        0.000000
 11
      -39.709973
 21
       86.500000
 31
        0.000000
  0
LINE
  8
0
 10
      -34.659970
 20
       89.000000
 30
        0.000000
 11
      -38.659970
 21
       89.000000
 31
        0.000000
  0
LINE
  8
0
 10
      -34.659970
 20
       87.000000
 30
        0.000000
 11
      -34.659970
 21
       89.000000
 31
        0.000000
  0
LINE
  8
0
 10
      -38.659970
 20
       87.000000
 30
        0.000000
 11
      -38.659970
 21
       89.000000
 31
        0.000000
  0
LINE
  8
0
 10
      -33.609967
 20
       87.000000
 30
        0.000000
 11
      -39.709973
 21
       87.000000
 31
        0.000000
  0
LINE
  8
0
 10
      -35.159970
 20
       84.500000
 30
        0.000000
 11
      -35.159970
 21
       85.000000
 31
        0.000000
  0
LINE
  8
0
 10
      -38.159970
 20
       84.500000
 30
        0.000000
 11
      -38.159970
 21
       85.000000
 31
        0.000000
  0
ARC
  8
0
 10
      -38.159970
 20
       83.500000
 30
        0.000000
 40
        0.500000
 50
      179.999990
 51
      270.000000
  0
LINE
  8
0
 10
      -36.909970
 20
       83.000000
 30
        0.000000
 11
      -38.159970
 21
       83.000000
 31
        0.000000
  0
LINE
  8
0
 10
      -36.909970
 20
       83.000000
 30
        0.000000
 11
      -36.909970
 21
       83.500000
 31
        0.000000
  0
LINE
  8
0
 10
      -36.409970
 20
       83.500000
 30
        0.000000
 11
      -36.909970
 21
       83.500000
 31
        0.000000
  0
LINE
  8
0
 10
      -27.039975
 20
       84.500000
 30
        0.000000
 11
      -31.039975
 21
       84.500000
 31
        0.000000
  0
LINE
  8
0
 10
      -27.039975
 20
       84.500000
 30
        0.000000
 11
      -31.039975
 21
       84.500000
 31
        0.000000
  0
LINE
  8
0
 10
      -27.039975
 20
       83.500000
 30
        0.000000
 11
      -27.039975
 21
       84.500000
 31
        0.000000
  0
LINE
  8
0
 10
      -31.039975
 20
       83.500000
 30
        0.000000
 11
      -31.039975
 21
       84.500000
 31
        0.000000
  0
LINE
  8
0
 10
      -27.539975
 20
       83.000000
 30
        0.000000
 11
      -28.789975
 21
       83.000000
 31
        0.000000
  0
ARC
  8
0
 10
      -27.539975
 20
       83.500000
 30
        0.000000
 40
        0.500000
 50
      270.000000
 51
      360.000005
  0
LINE
  8
0
 10
      -28.789975
 20
       83.000000
 30
        0.000000
 11
      -28.789975
 21
       83.500000
 31
        0.000000
  0
LINE
  8
0
 10
      -25.989956
 20
       86.000000
 30
        0.000000
 11
      -32.089962
 21
       86.000000
 31
        0.000000
  0
LINE
  8
0
 10
      -25.989956
 20
       85.000000
 30
        0.000000
 11
      -32.089962
 21
       85.000000
 31
        0.000000
  0
LINE
  8
0
 10
      -25.989956
 20
       86.500000
 30
        0.000000
 11
      -32.089962
 21
       86.500000
 31
        0.000000
  0
LINE
  8
0
 10
      -27.039975
 20
       89.000000
 30
        0.000000
 11
      -31.039975
 21
       89.000000
 31
        0.000000
  0
LINE
  8
0
 10
      -27.039975
 20
       87.000000
 30
        0.000000
 11
      -27.039975
 21
       89.000000
 31
        0.000000
  0
LINE
  8
0
 10
      -31.039975
 20
       87.000000
 30
        0.000000
 11
      -31.039975
 21
       89.000000
 31
        0.000000
  0
LINE
  8
0
 10
      -25.989956
 20
       87.000000
 30
        0.000000
 11
      -32.089962
 21
       87.000000
 31
        0.000000
  0
LINE
  8
0
 10
      -27.539975
 20
       84.500000
 30
        0.000000
 11
      -27.539975
 21
       85.000000
 31
        0.000000
  0
LINE
  8
0
 10
      -30.539975
 20
       84.500000
 30
        0.000000
 11
      -30.539975
 21
       85.000000
 31
        0.000000
  0
ARC
  8
0
 10
      -30.539975
 20
       83.500000
 30
        0.000000
 40
        0.500000
 50
      179.999990
 51
      270.000000
  0
LINE
  8
0
 10
      -29.289975
 20
       83.000000
 30
        0.000000
 11
      -30.539975
 21
       83.000000
 31
        0.000000
  0
LINE
  8
0
 10
      -29.289975
 20
       83.000000
 30
        0.000000
 11
      -29.289975
 21
       83.500000
 31
        0.000000
  0
LINE
  8
0
 10
      -28.789975
 20
       83.500000
 30
        0.000000
 11
      -29.289975
 21
       83.500000
 31
        0.000000
  0
LINE
  8
0
 10
      -19.419964
 20
       84.500000
 30
        0.000000
 11
      -23.419964
 21
       84.500000
 31
        0.000000
  0
LINE
  8
0
 10
      -19.419964
 20
       84.500000
 30
        0.000000
 11
      -23.419964
 21
       84.500000
 31
        0.000000
  0
LINE
  8
0
 10
      -19.419964
 20
       83.500000
 30
        0.000000
 11
      -19.419964
 21
       84.500000
 31
        0.000000
  0
LINE
  8
0
 10
      -23.419964
 20
       83.500000
 30
        0.000000
 11
      -23.419964
 21
       84.500000
 31
        0.000000
  0
LINE
  8
0
 10
      -19.919964
 20
       83.000000
 30
        0.000000
 11
      -21.169964
 21
       83.000000
 31
        0.000000
  0
ARC
  8
0
 10
      -19.919964
 20
       83.500000
 30
        0.000000
 40
        0.500000
 50
      270.000000
 51
      360.000005
  0
LINE
  8
0
 10
      -21.169964
 20
       83.000000
 30
        0.000000
 11
      -21.169964
 21
       83.500000
 31
        0.000000
  0
LINE
  8
0
 10
      -18.369961
 20
       86.000000
 30
        0.000000
 11
      -24.469967
 21
       86.000000
 31
        0.000000
  0
LINE
  8
0
 10
      -18.369961
 20
       85.000000
 30
        0.000000
 11
      -24.469967
 21
       85.000000
 31
        0.000000
  0
LINE
  8
0
 10
      -18.369961
 20
       86.500000
 30
        0.000000
 11
      -24.469967
 21
       86.500000
 31
        0.000000
  0
LINE
  8
0
 10
      -19.419964
 20
       89.000000
 30
        0.000000
 11
      -23.419964
 21
       89.000000
 31
        0.000000
  0
LINE
  8
0
 10
      -19.419964
 20
       87.000000
 30
        0.000000
 11
      -19.419964
 21
       89.000000
 31
        0.000000
  0
LINE
  8
0
 10
      -23.419964
 20
       87.000000
 30
        0.000000
 11
      -23.419964
 21
       89.000000
 31
        0.000000
  0
LINE
  8
0
 10
      -18.369961
 20
       87.000000
 30
        0.000000
 11
      -24.469967
 21
       87.000000
 31
        0.000000
  0
LINE
  8
0
 10
      -19.919964
 20
       84.500000
 30
        0.000000
 11
      -19.919964
 21
       85.000000
 31
        0.000000
  0
LINE
  8
0
 10
      -22.919964
 20
       84.500000
 30
        0.000000
 11
      -22.919964
 21
       85.000000
 31
        0.000000
  0
ARC
  8
0
 10
      -22.919964
 20
       83.500000
 30
        0.000000
 40
        0.500000
 50
      179.999990
 51
      270.000000
  0
LINE
  8
0
 10
      -21.669964
 20
       83.000000
 30
        0.000000
 11
      -22.919964
 21
       83.000000
 31
        0.000000
  0
LINE
  8
0
 10
      -21.669964
 20
       83.000000
 30
        0.000000
 11
      -21.669964
 21
       83.500000
 31
        0.000000
  0
LINE
  8
0
 10
      -21.169964
 20
       83.500000
 30
        0.000000
 11
      -21.669964
 21
       83.500000
 31
        0.000000
  0
LINE
  8
0
 10
      -11.799969
 20
       84.500000
 30
        0.000000
 11
      -15.799969
 21
       84.500000
 31
        0.000000
  0
LINE
  8
0
 10
      -11.799969
 20
       84.500000
 30
        0.000000
 11
      -15.799969
 21
       84.500000
 31
        0.000000
  0
LINE
  8
0
 10
      -11.799969
 20
       83.500000
 30
        0.000000
 11
      -11.799969
 21
       84.500000
 31
        0.000000
  0
LINE
  8
0
 10
      -15.799969
 20
       83.500000
 30
        0.000000
 11
      -15.799969
 21
       84.500000
 31
        0.000000
  0
LINE
  8
0
 10
      -12.299969
 20
       83.000000
 30
        0.000000
 11
      -13.549969
 21
       83.000000
 31
        0.000000
  0
ARC
  8
0
 10
      -12.299969
 20
       83.500000
 30
        0.000000
 40
        0.500000
 50
      270.000000
 51
      360.000005
  0
LINE
  8
0
 10
      -13.549969
 20
       83.000000
 30
        0.000000
 11
      -13.549969
 21
       83.500000
 31
        0.000000
  0
LINE
  8
0
 10
      -10.749966
 20
       86.000000
 30
        0.000000
 11
      -16.849972
 21
       86.000000
 31
        0.000000
  0
LINE
  8
0
 10
      -10.749966
 20
       85.000000
 30
        0.000000
 11
      -16.849972
 21
       85.000000
 31
        0.000000
  0
LINE
  8
0
 10
      -10.749966
 20
       86.500000
 30
        0.000000
 11
      -16.849972
 21
       86.500000
 31
        0.000000
  0
LINE
  8
0
 10
      -11.799969
 20
       89.000000
 30
        0.000000
 11
      -15.799969
 21
       89.000000
 31
        0.000000
  0
LINE
  8
0
 10
      -11.799969
 20
       87.000000
 30
        0.000000
 11
      -11.799969
 21
       89.000000
 31
        0.000000
  0
LINE
  8
0
 10
      -15.799969
 20
       87.000000
 30
        0.000000
 11
      -15.799969
 21
       89.000000
 31
        0.000000
  0
LINE
  8
0
 10
      -10.749966
 20
       87.000000
 30
        0.000000
 11
      -16.849972
 21
       87.000000
 31
        0.000000
  0
LINE
  8
0
 10
      -12.299969
 20
       84.500000
 30
        0.000000
 11
      -12.299969
 21
       85.000000
 31
        0.000000
  0
LINE
  8
0
 10
      -15.299969
 20
       84.500000
 30
        0.000000
 11
      -15.299969
 21
       85.000000
 31
        0.000000
  0
ARC
  8
0
 10
      -15.299969
 20
       83.500000
 30
        0.000000
 40
        0.500000
 50
      179.999990
 51
      270.000000
  0
LINE
  8
0
 10
      -14.049969
 20
       83.000000
 30
        0.000000
 11
      -15.299969
 21
       83.000000
 31
        0.000000
  0
LINE
  8
0
 10
      -14.049969
 20
       83.000000
 30
        0.000000
 11
      -14.049969
 21
       83.500000
 31
        0.000000
  0
LINE
  8
0
 10
      -13.549969
 20
       83.500000
 30
        0.000000
 11
      -14.049969
 21
       83.500000
 31
        0.000000
  0
LINE
  8
0
 10
       -4.179974
 20
       84.500000
 30
        0.000000
 11
       -8.179974
 21
       84.500000
 31
        0.000000
  0
LINE
  8
0
 10
       -4.179974
 20
       84.500000
 30
        0.000000
 11
       -8.179974
 21
       84.500000
 31
        0.000000
  0
LINE
  8
0
 10
       -4.179974
 20
       83.500000
 30
        0.000000
 11
       -4.179974
 21
       84.500000
 31
        0.000000
  0
LINE
  8
0
 10
       -8.179974
 20
       83.500000
 30
        0.000000
 11
       -8.179974
 21
       84.500000
 31
        0.000000
  0
LINE
  8
0
 10
       -4.679974
 20
       83.000000
 30
        0.000000
 11
       -5.929974
 21
       83.000000
 31
        0.000000
  0
ARC
  8
0
 10
       -4.679974
 20
       83.500000
 30
        0.000000
 40
        0.500000
 50
      270.000000
 51
      360.000005
  0
LINE
  8
0
 10
       -5.929974
 20
       83.000000
 30
        0.000000
 11
       -5.929974
 21
       83.500000
 31
        0.000000
  0
LINE
  8
0
 10
       -3.129971
 20
       86.000000
 30
        0.000000
 11
       -9.229977
 21
       86.000000
 31
        0.000000
  0
LINE
  8
0
 10
       -3.129971
 20
       85.000000
 30
        0.000000
 11
       -9.229977
 21
       85.000000
 31
        0.000000
  0
LINE
  8
0
 10
       -3.129971
 20
       86.500000
 30
        0.000000
 11
       -9.229977
 21
       86.500000
 31
        0.000000
  0
LINE
  8
0
 10
       -4.179974
 20
       89.000000
 30
        0.000000
 11
       -8.179974
 21
       89.000000
 31
        0.000000
  0
LINE
  8
0
 10
       -4.179974
 20
       87.000000
 30
        0.000000
 11
       -4.179974
 21
       89.000000
 31
        0.000000
  0
LINE
  8
0
 10
       -8.179974
 20
       87.000000
 30
        0.000000
 11
       -8.179974
 21
       89.000000
 31
        0.000000
  0
LINE
  8
0
 10
       -3.129971
 20
       87.000000
 30
        0.000000
 11
       -9.229977
 21
       87.000000
 31
        0.000000
  0
LINE
  8
0
 10
       -4.679974
 20
       84.500000
 30
        0.000000
 11
       -4.679974
 21
       85.000000
 31
        0.000000
  0
LINE
  8
0
 10
       -7.679974
 20
       84.500000
 30
        0.000000
 11
       -7.679974
 21
       85.000000
 31
        0.000000
  0
ARC
  8
0
 10
       -7.679974
 20
       83.500000
 30
        0.000000
 40
        0.500000
 50
      179.999990
 51
      270.000000
  0
LINE
  8
0
 10
       -6.429974
 20
       83.000000
 30
        0.000000
 11
       -7.679974
 21
       83.000000
 31
        0.000000
  0
LINE
  8
0
 10
       -6.429974
 20
       83.000000
 30
        0.000000
 11
       -6.429974
 21
       83.500000
 31
        0.000000
  0
LINE
  8
0
 10
       -5.929974
 20
       83.500000
 30
        0.000000
 11
       -6.429974
 21
       83.500000
 31
        0.000000
  0
LINE
  8
0
 10
        3.440036
 20
       84.500000
 30
        0.000000
 11
       -0.559964
 21
       84.500000
 31
        0.000000
  0
LINE
  8
0
 10
        3.440036
 20
       84.500000
 30
        0.000000
 11
       -0.559964
 21
       84.500000
 31
        0.000000
  0
LINE
  8
0
 10
        3.440036
 20
       83.500000
 30
        0.000000
 11
        3.440036
 21
       84.500000
 31
        0.000000
  0
LINE
  8
0
 10
       -0.559964
 20
       83.500000
 30
        0.000000
 11
       -0.559964
 21
       84.500000
 31
        0.000000
  0
LINE
  8
0
 10
        2.940036
 20
       83.000000
 30
        0.000000
 11
        1.690036
 21
       83.000000
 31
        0.000000
  0
ARC
  8
0
 10
        2.940036
 20
       83.500000
 30
        0.000000
 40
        0.500000
 50
      270.000000
 51
      360.000005
  0
LINE
  8
0
 10
        1.690036
 20
       83.000000
 30
        0.000000
 11
        1.690036
 21
       83.500000
 31
        0.000000
  0
LINE
  8
0
 10
        4.490039
 20
       86.000000
 30
        0.000000
 11
       -1.609967
 21
       86.000000
 31
        0.000000
  0
LINE
  8
0
 10
        4.490039
 20
       85.000000
 30
        0.000000
 11
       -1.609967
 21
       85.000000
 31
        0.000000
  0
LINE
  8
0
 10
        4.490039
 20
       86.500000
 30
        0.000000
 11
       -1.609967
 21
       86.500000
 31
        0.000000
  0
LINE
  8
0
 10
        3.440036
 20
       89.000000
 30
        0.000000
 11
       -0.559964
 21
       89.000000
 31
        0.000000
  0
LINE
  8
0
 10
        3.440036
 20
       87.000000
 30
        0.000000
 11
        3.440036
 21
       89.000000
 31
        0.000000
  0
LINE
  8
0
 10
       -0.559964
 20
       87.000000
 30
        0.000000
 11
       -0.559964
 21
       89.000000
 31
        0.000000
  0
LINE
  8
0
 10
        4.490039
 20
       87.000000
 30
        0.000000
 11
       -1.609967
 21
       87.000000
 31
        0.000000
  0
LINE
  8
0
 10
        2.940036
 20
       84.500000
 30
        0.000000
 11
        2.940036
 21
       85.000000
 31
        0.000000
  0
LINE
  8
0
 10
       -0.059964
 20
       84.500000
 30
        0.000000
 11
       -0.059964
 21
       85.000000
 31
        0.000000
  0
ARC
  8
0
 10
       -0.059964
 20
       83.500000
 30
        0.000000
 40
        0.500000
 50
      179.999990
 51
      270.000000
  0
LINE
  8
0
 10
        1.190036
 20
       83.000000
 30
        0.000000
 11
       -0.059964
 21
       83.000000
 31
        0.000000
  0
LINE
  8
0
 10
        1.190036
 20
       83.000000
 30
        0.000000
 11
        1.190036
 21
       83.500000
 31
        0.000000
  0
LINE
  8
0
 10
        1.690036
 20
       83.500000
 30
        0.000000
 11
        1.190036
 21
       83.500000
 31
        0.000000
  0
LINE
  8
0
 10
        9.310031
 20
       83.500000
 30
        0.000000
 11
        8.810031
 21
       83.500000
 31
        0.000000
  0
LINE
  8
0
 10
        8.810031
 20
       83.000000
 30
        0.000000
 11
        8.810031
 21
       83.500000
 31
        0.000000
  0
LINE
  8
0
 10
        8.810031
 20
       83.000000
 30
        0.000000
 11
        7.560031
 21
       83.000000
 31
        0.000000
  0
ARC
  8
0
 10
        7.560031
 20
       83.500000
 30
        0.000000
 40
        0.500000
 50
      179.999990
 51
      270.000000
  0
LINE
  8
0
 10
        7.560031
 20
       84.500000
 30
        0.000000
 11
        7.560031
 21
       85.000000
 31
        0.000000
  0
LINE
  8
0
 10
       10.560031
 20
       84.500000
 30
        0.000000
 11
       10.560031
 21
       85.000000
 31
        0.000000
  0
LINE
  8
0
 10
       12.110034
 20
       87.000000
 30
        0.000000
 11
        6.010028
 21
       87.000000
 31
        0.000000
  0
LINE
  8
0
 10
        7.060031
 20
       87.000000
 30
        0.000000
 11
        7.060031
 21
       89.000000
 31
        0.000000
  0
LINE
  8
0
 10
       11.060031
 20
       87.000000
 30
        0.000000
 11
       11.060031
 21
       89.000000
 31
        0.000000
  0
LINE
  8
0
 10
       11.060031
 20
       89.000000
 30
        0.000000
 11
        7.060031
 21
       89.000000
 31
        0.000000
  0
LINE
  8
0
 10
       12.110034
 20
       86.500000
 30
        0.000000
 11
        6.010028
 21
       86.500000
 31
        0.000000
  0
LINE
  8
0
 10
       12.110034
 20
       85.000000
 30
        0.000000
 11
        6.010028
 21
       85.000000
 31
        0.000000
  0
LINE
  8
0
 10
       12.110034
 20
       86.000000
 30
        0.000000
 11
        6.010028
 21
       86.000000
 31
        0.000000
  0
LINE
  8
0
 10
        9.310031
 20
       83.000000
 30
        0.000000
 11
        9.310031
 21
       83.500000
 31
        0.000000
  0
ARC
  8
0
 10
       10.560031
 20
       83.500000
 30
        0.000000
 40
        0.500000
 50
      270.000000
 51
      360.000005
  0
LINE
  8
0
 10
       10.560031
 20
       83.000000
 30
        0.000000
 11
        9.310031
 21
       83.000000
 31
        0.000000
  0
LINE
  8
0
 10
        7.060031
 20
       83.500000
 30
        0.000000
 11
        7.060031
 21
       84.500000
 31
        0.000000
  0
LINE
  8
0
 10
       11.060031
 20
       83.500000
 30
        0.000000
 11
       11.060031
 21
       84.500000
 31
        0.000000
  0
LINE
  8
0
 10
       11.060031
 20
       84.500000
 30
        0.000000
 11
        7.060031
 21
       84.500000
 31
        0.000000
  0
LINE
  8
0
 10
       11.060031
 20
       84.500000
 30
        0.000000
 11
        7.060031
 21
       84.500000
 31
        0.000000
  0
LINE
  8
0
 10
       16.930027
 20
       83.500000
 30
        0.000000
 11
       16.430027
 21
       83.500000
 31
        0.000000
  0
LINE
  8
0
 10
       16.430027
 20
       83.000000
 30
        0.000000
 11
       16.430027
 21
       83.500000
 31
        0.000000
  0
LINE
  8
0
 10
       16.430027
 20
       83.000000
 30
        0.000000
 11
       15.180027
 21
       83.000000
 31
        0.000000
  0
ARC
  8
0
 10
       15.180027
 20
       83.500000
 30
        0.000000
 40
        0.500000
 50
      179.999990
 51
      270.000000
  0
LINE
  8
0
 10
       15.180027
 20
       84.500000
 30
        0.000000
 11
       15.180027
 21
       85.000000
 31
        0.000000
  0
LINE
  8
0
 10
       18.180027
 20
       84.500000
 30
        0.000000
 11
       18.180027
 21
       85.000000
 31
        0.000000
  0
LINE
  8
0
 10
       19.730030
 20
       87.000000
 30
        0.000000
 11
       13.630023
 21
       87.000000
 31
        0.000000
  0
LINE
  8
0
 10
       14.680027
 20
       87.000000
 30
        0.000000
 11
       14.680027
 21
       89.000000
 31
        0.000000
  0
LINE
  8
0
 10
       18.680027
 20
       87.000000
 30
        0.000000
 11
       18.680027
 21
       89.000000
 31
        0.000000
  0
LINE
  8
0
 10
       18.680027
 20
       89.000000
 30
        0.000000
 11
       14.680027
 21
       89.000000
 31
        0.000000
  0
LINE
  8
0
 10
       19.730030
 20
       86.500000
 30
        0.000000
 11
       13.630023
 21
       86.500000
 31
        0.000000
  0
LINE
  8
0
 10
      -57.000000
 20
       84.000000
 30
        0.000000
 11
      -59.000000
 21
       82.000000
 31
        0.000000
  0
LINE
  8
0
 10
       25.589988
 20
       84.000000
 30
        0.000000
 11
       27.589988
 21
       82.000000
 31
        0.000000
  0
LINE
  8
0
 10
       25.589988
 20
       70.500000
 30
        0.000000
 11
      -57.000000
 21
       70.500000
 31
        0.000000
  0
LINE
  8
0
 10
       25.589988
 20
       68.500000
 30
        0.000000
 11
       27.589988
 21
       68.500000
 31
        0.000000
  0
LINE
  8
0
 10
      -59.000000
 20
       68.500000
 30
        0.000000
 11
      -57.000000
 21
       68.500000
 31
        0.000000
  0
LINE
  8
0
 10
       25.589988
 20
       71.500000
 30
        0.000000
 11
       25.589988
 21
       68.500000
 31
        0.000000
  0
LINE
  8
0
 10
       25.589988
 20
       91.000000
 30
        0.000000
 11
       25.589988
 21
       84.000000
 31
        0.000000
  0
LINE
  8
0
 10
      -57.000000
 20
       71.500000
 30
        0.000000
 11
      -57.000000
 21
       68.500000
 31
        0.000000
  0
LINE
  8
0
 10
      -57.000000
 20
       91.000000
 30
        0.000000
 11
      -57.000000
 21
       84.000000
 31
        0.000000
  0
LINE
  8
0
 10
      -59.000000
 20
       82.000000
 30
        0.000000
 11
      -59.000000
 21
       68.500000
 31
        0.000000
  0
LINE
  8
0
 10
       27.589988
 20
       82.000000
 30
        0.000000
 11
       27.589988
 21
       68.500000
 31
        0.000000
  0
ARC
  8
0
 10
       62.500000
 20
       71.000000
 30
        0.000000
 40
        0.500000
 50
      270.000000
 51
      360.000000
  0
LINE
  8
0
 10
       63.000000
 20
       71.000000
 30
        0.000000
 11
       63.000000
 21
       96.000000
 31
        0.000000
  0
ARC
  8
0
 10
      -62.500000
 20
       71.000000
 30
        0.000000
 40
        0.500000
 50
      179.999990
 51
      270.000000
  0
LINE
  8
0
 10
      -63.000000
 20
       71.000000
 30
        0.000000
 11
      -63.000000
 21
       96.000000
 31
        0.000000
  0
ARC
  8
0
 10
      -62.500000
 20
       96.000000
 30
        0.000000
 40
        0.500000
 50
       90.000000
 51
      179.999990
  0
LINE
  8
0
 10
      -62.500000
 20
       96.500000
 30
        0.000000
 11
       62.500000
 21
       96.500000
 31
        0.000000
  0
ARC
  8
0
 10
       62.500000
 20
       96.000000
 30
        0.000000
 40
        0.500000
 50
        0.000000
 51
       90.000000
  0
LINE
  8
0
 10
       25.889988
 20
       84.124264
 30
        0.000000
 11
       27.889988
 21
       82.124264
 31
        0.000000
  0
LINE
  8
0
 10
       25.889988
 20
       91.000000
 30
        0.000000
 11
       25.889988
 21
       84.124264
 31
        0.000000
  0
LINE
  8
0
 10
      -57.300000
 20
       84.124264
 30
        0.000000
 11
      -59.300000
 21
       82.124264
 31
        0.000000
  0
LINE
  8
0
 10
      -57.300000
 20
       91.000000
 30
        0.000000
 11
      -57.300000
 21
       84.124264
 31
        0.000000
  0
ARC
  8
0
 10
      -63.000000
 20
       70.500000
 30
        0.000000
 40
        2.000000
 50
      179.999990
 51
      270.000000
  0
LINE
  8
0
 10
      -65.000000
 20
       83.500000
 30
        0.000000
 11
      -65.000000
 21
       70.500000
 31
        0.000000
  0
LINE
  8
0
 10
      -63.000000
 20
       68.500000
 30
        0.000000
 11
       63.000000
 21
       68.500000
 31
        0.000000
  0
ARC
  8
0
 10
      -63.000000
 20
       96.500000
 30
        0.000000
 40
        2.000000
 50
       90.000000
 51
      179.999990
  0
LINE
  8
0
 10
      -65.000000
 20
       83.500000
 30
        0.000000
 11
      -65.000000
 21
       96.500000
 31
        0.000000
  0
LINE
  8
0
 10
      -63.000000
 20
       98.500000
 30
        0.000000
 11
       63.000000
 21
       98.500000
 31
        0.000000
  0
ARC
  8
0
 10
       63.000000
 20
       70.500000
 30
        0.000000
 40
        2.000000
 50
      270.000000
 51
      360.000000
  0
LINE
  8
0
 10
      -59.000000
 20
       31.500024
 30
        0.000000
 11
      -59.000000
 21
       25.500024
 31
        0.000000
  0
LINE
  8
0
 10
      -59.000000
 20
       45.000000
 30
        0.000000
 11
      -59.000000
 21
       39.000000
 31
        0.000000
  0
LINE
  8
0
 10
       27.590049
 20
       31.500024
 30
        0.000000
 11
       27.590049
 21
       25.500024
 31
        0.000000
  0
LINE
  8
0
 10
       27.590049
 20
       45.000000
 30
        0.000000
 11
       27.590049
 21
       39.000000
 31
        0.000000
  0
LINE
  8
0
 10
       25.590049
 20
       39.000000
 30
        0.000000
 11
       27.590049
 21
       39.000000
 31
        0.000000
  0
LINE
  8
0
 10
      -59.000000
 20
       39.000000
 30
        0.000000
 11
      -57.000000
 21
       39.000000
 31
        0.000000
  0
LINE
  8
0
 10
       25.590049
 20
       31.500024
 30
        0.000000
 11
       27.590049
 21
       31.500024
 31
        0.000000
  0
LINE
  8
0
 10
      -59.000000
 20
       31.500024
 30
        0.000000
 11
      -57.000000
 21
       31.500024
 31
        0.000000
  0
LINE
  8
0
 10
      -59.000000
 20
       25.500024
 30
        0.000000
 11
       27.590049
 21
       25.500024
 31
        0.000000
  0
LINE
  8
0
 10
      -59.000000
 20
       45.000000
 30
        0.000000
 11
       27.590049
 21
       45.000000
 31
        0.000000
  0
LINE
  8
0
 10
       25.590049
 20
       45.000000
 30
        0.000000
 11
       25.590049
 21
       25.500024
 31
        0.000000
  0
LINE
  8
0
 10
      -57.000000
 20
       45.000000
 30
        0.000000
 11
      -57.000000
 21
       25.500024
 31
        0.000000
  0
LINE
  8
0
 10
      -54.950032
 20
       26.500024
 30
        0.000000
 11
       23.540020
 21
       26.500024
 31
        0.000000
  0
LINE
  8
0
 10
       23.540020
 20
       45.000000
 30
        0.000000
 11
       23.540020
 21
       26.500024
 31
        0.000000
  0
LINE
  8
0
 10
       23.540020
 20
       35.800073
 30
        0.000000
 11
      -54.950032
 21
       35.800073
 31
        0.000000
  0
LINE
  8
0
 10
       17.440044
 20
       35.800073
 30
        0.000000
 11
       17.440044
 21
       26.500024
 31
        0.000000
  0
LINE
  8
0
 10
        9.820049
 20
       35.800073
 30
        0.000000
 11
        9.820049
 21
       26.500024
 31
        0.000000
  0
LINE
  8
0
 10
        2.200054
 20
       35.800073
 30
        0.000000
 11
        2.200054
 21
       26.500024
 31
        0.000000
  0
LINE
  8
0
 10
       -5.420002
 20
       35.800073
 30
        0.000000
 11
       -5.420002
 21
       26.500024
 31
        0.000000
  0
LINE
  8
0
 10
      -13.039998
 20
       35.800073
 30
        0.000000
 11
      -13.039998
 21
       26.500024
 31
        0.000000
  0
LINE
  8
0
 10
      -20.659993
 20
       35.800073
 30
        0.000000
 11
      -20.659993
 21
       26.500024
 31
        0.000000
  0
LINE
  8
0
 10
      -28.280049
 20
       35.800073
 30
        0.000000
 11
      -28.280049
 21
       26.500024
 31
        0.000000
  0
LINE
  8
0
 10
      -35.900044
 20
       35.800073
 30
        0.000000
 11
      -35.900044
 21
       26.500024
 31
        0.000000
  0
LINE
  8
0
 10
      -43.520039
 20
       35.800073
 30
        0.000000
 11
      -43.520039
 21
       26.500024
 31
        0.000000
  0
LINE
  8
0
 10
      -51.140034
 20
       35.800073
 30
        0.000000
 11
      -51.140034
 21
       26.500024
 31
        0.000000
  0
LINE
  8
0
 10
       15.920024
 20
       35.800073
 30
        0.000000
 11
       15.920024
 21
       26.500024
 31
        0.000000
  0
LINE
  8
0
 10
        8.300029
 20
       35.800073
 30
        0.000000
 11
        8.300029
 21
       26.500024
 31
        0.000000
  0
LINE
  8
0
 10
        0.680034
 20
       35.800073
 30
        0.000000
 11
        0.680034
 21
       26.500024
 31
        0.000000
  0
LINE
  8
0
 10
       -6.940022
 20
       35.800073
 30
        0.000000
 11
       -6.940022
 21
       26.500024
 31
        0.000000
  0
LINE
  8
0
 10
      -51.140034
 20
       35.800073
 30
        0.000000
 11
      -51.140034
 21
       26.500024
 31
        0.000000
  0
LINE
  8
0
 10
      -54.950032
 20
       45.000000
 30
        0.000000
 11
      -54.950032
 21
       26.500024
 31
        0.000000
  0
LINE
  8
0
 10
      -14.560017
 20
       35.800073
 30
        0.000000
 11
      -14.560017
 21
       26.500024
 31
        0.000000
  0
LINE
  8
0
 10
      -22.180012
 20
       35.800073
 30
        0.000000
 11
      -22.180012
 21
       26.500024
 31
        0.000000
  0
LINE
  8
0
 10
      -29.800068
 20
       35.800073
 30
        0.000000
 11
      -29.800068
 21
       26.500024
 31
        0.000000
  0
LINE
  8
0
 10
      -37.420063
 20
       35.800073
 30
        0.000000
 11
      -37.420063
 21
       26.500024
 31
        0.000000
  0
LINE
  8
0
 10
      -45.040059
 20
       35.800073
 30
        0.000000
 11
      -45.040059
 21
       26.500024
 31
        0.000000
  0
LINE
  8
0
 10
      -52.660054
 20
       35.800073
 30
        0.000000
 11
      -52.660054
 21
       26.500024
 31
        0.000000
  0
LINE
  8
0
 10
       19.729961
 20
       45.000000
 30
        0.000000
 11
       19.729961
 21
       35.800073
 31
        0.000000
  0
LINE
  8
0
 10
       13.629985
 20
       45.000000
 30
        0.000000
 11
       13.629985
 21
       35.800073
 31
        0.000000
  0
LINE
  8
0
 10
       12.109966
 20
       45.000000
 30
        0.000000
 11
       12.109966
 21
       35.800073
 31
        0.000000
  0
LINE
  8
0
 10
        6.009990
 20
       45.000000
 30
        0.000000
 11
        6.009990
 21
       35.800073
 31
        0.000000
  0
LINE
  8
0
 10
        4.489971
 20
       45.000000
 30
        0.000000
 11
        4.489971
 21
       35.800073
 31
        0.000000
  0
LINE
  8
0
 10
       -1.610005
 20
       45.000000
 30
        0.000000
 11
       -1.610005
 21
       35.800073
 31
        0.000000
  0
LINE
  8
0
 10
       -3.130024
 20
       45.000000
 30
        0.000000
 11
       -3.130024
 21
       35.800073
 31
        0.000000
  0
LINE
  8
0
 10
       -9.230000
 20
       45.000000
 30
        0.000000
 11
       -9.230000
 21
       35.800073
 31
        0.000000
  0
LINE
  8
0
 10
      -10.750020
 20
       45.000000
 30
        0.000000
 11
      -10.750020
 21
       35.800073
 31
        0.000000
  0
LINE
  8
0
 10
      -16.849995
 20
       45.000000
 30
        0.000000
 11
      -16.849995
 21
       35.800073
 31
        0.000000
  0
LINE
  8
0
 10
      -18.370015
 20
       45.000000
 30
        0.000000
 11
      -18.370015
 21
       35.800073
 31
        0.000000
  0
LINE
  8
0
 10
      -24.469990
 20
       45.000000
 30
        0.000000
 11
      -24.469990
 21
       35.800073
 31
        0.000000
  0
LINE
  8
0
 10
      -25.990010
 20
       45.000000
 30
        0.000000
 11
      -25.990010
 21
       35.800073
 31
        0.000000
  0
LINE
  8
0
 10
      -32.089985
 20
       45.000000
 30
        0.000000
 11
      -32.089985
 21
       35.800073
 31
        0.000000
  0
LINE
  8
0
 10
      -33.610005
 20
       45.000000
 30
        0.000000
 11
      -33.610005
 21
       35.800073
 31
        0.000000
  0
LINE
  8
0
 10
      -39.709980
 20
       45.000000
 30
        0.000000
 11
      -39.709980
 21
       35.800073
 31
        0.000000
  0
LINE
  8
0
 10
      -41.230000
 20
       45.000000
 30
        0.000000
 11
      -41.230000
 21
       35.800073
 31
        0.000000
  0
LINE
  8
0
 10
      -47.329976
 20
       45.000000
 30
        0.000000
 11
      -47.329976
 21
       35.800073
 31
        0.000000
  0
LINE
  8
0
 10
      -48.849995
 20
       45.000000
 30
        0.000000
 11
      -48.849995
 21
       35.800073
 31
        0.000000
  0
LINE
  8
0
 10
      -54.950032
 20
       45.000000
 30
        0.000000
 11
      -54.950032
 21
       35.800073
 31
        0.000000
  0
LINE
  8
0
 10
       21.249980
 20
       45.000000
 30
        0.000000
 11
       21.249980
 21
       35.800073
 31
        0.000000
  0
LINE
  8
0
 10
       23.540020
 20
       34.700012
 30
        0.000000
 11
       17.440044
 21
       34.700012
 31
        0.000000
  0
LINE
  8
0
 10
       15.920024
 20
       34.700012
 30
        0.000000
 11
        9.820049
 21
       34.700012
 31
        0.000000
  0
LINE
  8
0
 10
        8.300029
 20
       34.700012
 30
        0.000000
 11
        2.200054
 21
       34.700012
 31
        0.000000
  0
LINE
  8
0
 10
        0.680034
 20
       34.700012
 30
        0.000000
 11
       -5.420002
 21
       34.700012
 31
        0.000000
  0
LINE
  8
0
 10
       -6.939961
 20
       34.700012
 30
        0.000000
 11
      -13.039998
 21
       34.700012
 31
        0.000000
  0
LINE
  8
0
 10
      -14.560017
 20
       34.700012
 30
        0.000000
 11
      -20.659993
 21
       34.700012
 31
        0.000000
  0
LINE
  8
0
 10
      -22.180012
 20
       34.700012
 30
        0.000000
 11
      -28.280049
 21
       34.700012
 31
        0.000000
  0
LINE
  8
0
 10
      -29.800007
 20
       34.700012
 30
        0.000000
 11
      -35.900044
 21
       34.700012
 31
        0.000000
  0
LINE
  8
0
 10
      -37.420063
 20
       34.700012
 30
        0.000000
 11
      -43.520039
 21
       34.700012
 31
        0.000000
  0
LINE
  8
0
 10
      -45.040059
 20
       34.700012
 30
        0.000000
 11
      -51.140034
 21
       34.700012
 31
        0.000000
  0
LINE
  8
0
 10
       19.729961
 20
       43.900000
 30
        0.000000
 11
       13.629985
 21
       43.900000
 31
        0.000000
  0
LINE
  8
0
 10
       12.109966
 20
       43.900000
 30
        0.000000
 11
        6.009990
 21
       43.900000
 31
        0.000000
  0
LINE
  8
0
 10
        4.489971
 20
       43.900000
 30
        0.000000
 11
       -1.610005
 21
       43.900000
 31
        0.000000
  0
LINE
  8
0
 10
       -3.130024
 20
       43.900000
 30
        0.000000
 11
       -9.230000
 21
       43.900000
 31
        0.000000
  0
LINE
  8
0
 10
      -10.750020
 20
       43.900000
 30
        0.000000
 11
      -16.849995
 21
       43.900000
 31
        0.000000
  0
LINE
  8
0
 10
      -18.370015
 20
       43.900000
 30
        0.000000
 11
      -24.469990
 21
       43.900000
 31
        0.000000
  0
LINE
  8
0
 10
      -25.990010
 20
       43.900000
 30
        0.000000
 11
      -32.089985
 21
       43.900000
 31
        0.000000
  0
LINE
  8
0
 10
      -33.610005
 20
       43.900000
 30
        0.000000
 11
      -39.709980
 21
       43.900000
 31
        0.000000
  0
LINE
  8
0
 10
      -41.230000
 20
       43.900000
 30
        0.000000
 11
      -47.329976
 21
       43.900000
 31
        0.000000
  0
LINE
  8
0
 10
      -48.849995
 20
       43.900000
 30
        0.000000
 11
      -54.950032
 21
       43.900000
 31
        0.000000
  0
LINE
  8
0
 10
       15.265728
 20
       41.214185
 30
        0.000000
 11
       18.094219
 21
       38.385754
 31
        0.000000
  0
LINE
  8
0
 10
       17.387065
 20
       40.507153
 30
        0.000000
 11
       15.972881
 21
       39.092908
 31
        0.000000
  0
LINE
  8
0
 10
       19.030010
 20
       37.300000
 30
        0.000000
 11
       14.329998
 21
       37.300000
 31
        0.000000
  0
LINE
  8
0
 10
       19.030010
 20
       42.300000
 30
        0.000000
 11
       14.329998
 21
       42.300000
 31
        0.000000
  0
LINE
  8
0
 10
       19.530010
 20
       41.800000
 30
        0.000000
 11
       19.530010
 21
       37.800000
 31
        0.000000
  0
CIRCLE
  8
0
 10
       16.680034
 20
       39.800000
 30
        0.000000
 40
        2.000000
  0
ARC
  8
0
 10
       19.030010
 20
       41.800000
 30
        0.000000
 40
        0.500000
 50
        0.000000
 51
       90.000000
  0
ARC
  8
0
 10
       19.030010
 20
       37.800000
 30
        0.000000
 40
        0.500000
 50
      270.000000
 51
      360.000000
  0
LINE
  8
0
 10
       13.829998
 20
       41.800000
 30
        0.000000
 11
       13.829998
 21
       37.800000
 31
        0.000000
  0
ARC
  8
0
 10
       14.329998
 20
       41.800000
 30
        0.000000
 40
        0.500000
 50
       90.000000
 51
      180.000015
  0
ARC
  8
0
 10
       14.329998
 20
       37.800000
 30
        0.000000
 40
        0.500000
 50
      180.000015
 51
      270.000000
  0
LINE
  8
0
 10
        7.645732
 20
       41.214185
 30
        0.000000
 11
       10.474224
 21
       38.385754
 31
        0.000000
  0
LINE
  8
0
 10
        9.767070
 20
       40.507153
 30
        0.000000
 11
        8.352886
 21
       39.092908
 31
        0.000000
  0
LINE
  8
0
 10
       11.410015
 20
       37.300000
 30
        0.000000
 11
        6.710002
 21
       37.300000
 31
        0.000000
  0
LINE
  8
0
 10
       11.410015
 20
       42.300000
 30
        0.000000
 11
        6.710002
 21
       42.300000
 31
        0.000000
  0
LINE
  8
0
 10
       11.910015
 20
       41.800000
 30
        0.000000
 11
       11.910015
 21
       37.800000
 31
        0.000000
  0
CIRCLE
  8
0
 10
        9.060039
 20
       39.800000
 30
        0.000000
 40
        2.000000
  0
ARC
  8
0
 10
       11.410015
 20
       41.800000
 30
        0.000000
 40
        0.500000
 50
        0.000000
 51
       90.000000
  0
ARC
  8
0
 10
       11.410015
 20
       37.800000
 30
        0.000000
 40
        0.500000
 50
      270.000000
 51
      360.000000
  0
LINE
  8
0
 10
        6.210002
 20
       41.800000
 30
        0.000000
 11
        6.210002
 21
       37.800000
 31
        0.000000
  0
ARC
  8
0
 10
        6.710002
 20
       41.800000
 30
        0.000000
 40
        0.500000
 50
       90.000000
 51
      180.000015
  0
ARC
  8
0
 10
        6.710002
 20
       37.800000
 30
        0.000000
 40
        0.500000
 50
      180.000015
 51
      270.000000
  0
LINE
  8
0
 10
        0.025737
 20
       41.214185
 30
        0.000000
 11
        2.854229
 21
       38.385754
 31
        0.000000
  0
LINE
  8
0
 10
        2.147075
 20
       40.507153
 30
        0.000000
 11
        0.732891
 21
       39.092908
 31
        0.000000
  0
LINE
  8
0
 10
        3.790020
 20
       37.300000
 30
        0.000000
 11
       -0.910054
 21
       37.300000
 31
        0.000000
  0
LINE
  8
0
 10
        3.790020
 20
       42.300000
 30
        0.000000
 11
       -0.910054
 21
       42.300000
 31
        0.000000
  0
LINE
  8
0
 10
        4.290020
 20
       41.800000
 30
        0.000000
 11
        4.290020
 21
       37.800000
 31
        0.000000
  0
CIRCLE
  8
0
 10
        1.440044
 20
       39.800000
 30
        0.000000
 40
        2.000000
  0
ARC
  8
0
 10
        3.790020
 20
       41.800000
 30
        0.000000
 40
        0.500000
 50
        0.000000
 51
       90.000000
  0
ARC
  8
0
 10
        3.790020
 20
       37.800000
 30
        0.000000
 40
        0.500000
 50
      270.000000
 51
      360.000000
  0
LINE
  8
0
 10
       -1.410054
 20
       41.800000
 30
        0.000000
 11
       -1.410054
 21
       37.800000
 31
        0.000000
  0
ARC
  8
0
 10
       -0.910054
 20
       41.800000
 30
        0.000000
 40
        0.500000
 50
       90.000000
 51
      180.000015
  0
ARC
  8
0
 10
       -0.910054
 20
       37.800000
 30
        0.000000
 40
        0.500000
 50
      180.000015
 51
      270.000000
  0
LINE
  8
0
 10
       -7.594258
 20
       41.214185
 30
        0.000000
 11
       -4.765767
 21
       38.385754
 31
        0.000000
  0
LINE
  8
0
 10
       -5.472920
 20
       40.507153
 30
        0.000000
 11
       -6.887166
 21
       39.092908
 31
        0.000000
  0
LINE
  8
0
 10
       -3.829976
 20
       37.300000
 30
        0.000000
 11
       -8.530049
 21
       37.300000
 31
        0.000000
  0
LINE
  8
0
 10
       -3.829976
 20
       42.300000
 30
        0.000000
 11
       -8.530049
 21
       42.300000
 31
        0.000000
  0
LINE
  8
0
 10
       -3.329976
 20
       41.800000
 30
        0.000000
 11
       -3.329976
 21
       37.800000
 31
        0.000000
  0
CIRCLE
  8
0
 10
       -6.180012
 20
       39.800000
 30
        0.000000
 40
        2.000000
  0
ARC
  8
0
 10
       -3.829976
 20
       41.800000
 30
        0.000000
 40
        0.500000
 50
        0.000000
 51
       90.000000
  0
ARC
  8
0
 10
       -3.829976
 20
       37.800000
 30
        0.000000
 40
        0.500000
 50
      270.000000
 51
      360.000000
  0
LINE
  8
0
 10
       -9.030049
 20
       41.800000
 30
        0.000000
 11
       -9.030049
 21
       37.800000
 31
        0.000000
  0
ARC
  8
0
 10
       -8.530049
 20
       41.800000
 30
        0.000000
 40
        0.500000
 50
       90.000000
 51
      180.000015
  0
ARC
  8
0
 10
       -8.530049
 20
       37.800000
 30
        0.000000
 40
        0.500000
 50
      180.000015
 51
      270.000000
  0
LINE
  8
0
 10
      -15.214253
 20
       41.214185
 30
        0.000000
 11
      -12.385823
 21
       38.385754
 31
        0.000000
  0
LINE
  8
0
 10
      -13.092976
 20
       40.507153
 30
        0.000000
 11
      -14.507161
 21
       39.092908
 31
        0.000000
  0
LINE
  8
0
 10
      -11.450032
 20
       37.300000
 30
        0.000000
 11
      -16.150044
 21
       37.300000
 31
        0.000000
  0
LINE
  8
0
 10
      -11.450032
 20
       42.300000
 30
        0.000000
 11
      -16.150044
 21
       42.300000
 31
        0.000000
  0
LINE
  8
0
 10
      -10.950032
 20
       41.800000
 30
        0.000000
 11
      -10.950032
 21
       37.800000
 31
        0.000000
  0
CIRCLE
  8
0
 10
      -13.800007
 20
       39.800000
 30
        0.000000
 40
        2.000000
  0
ARC
  8
0
 10
      -11.450032
 20
       41.800000
 30
        0.000000
 40
        0.500000
 50
        0.000000
 51
       90.000000
  0
ARC
  8
0
 10
      -11.450032
 20
       37.800000
 30
        0.000000
 40
        0.500000
 50
      270.000000
 51
      360.000000
  0
LINE
  8
0
 10
      -16.650044
 20
       41.800000
 30
        0.000000
 11
      -16.650044
 21
       37.800000
 31
        0.000000
  0
ARC
  8
0
 10
      -16.150044
 20
       41.800000
 30
        0.000000
 40
        0.500000
 50
       90.000000
 51
      180.000015
  0
ARC
  8
0
 10
      -16.150044
 20
       37.800000
 30
        0.000000
 40
        0.500000
 50
      180.000015
 51
      270.000000
  0
LINE
  8
0
 10
      -22.834248
 20
       41.214185
 30
        0.000000
 11
      -20.005818
 21
       38.385754
 31
        0.000000
  0
LINE
  8
0
 10
      -20.712971
 20
       40.507153
 30
        0.000000
 11
      -22.127156
 21
       39.092908
 31
        0.000000
  0
LINE
  8
0
 10
      -19.070027
 20
       37.300000
 30
        0.000000
 11
      -23.770039
 21
       37.300000
 31
        0.000000
  0
LINE
  8
0
 10
      -19.070027
 20
       42.300000
 30
        0.000000
 11
      -23.770039
 21
       42.300000
 31
        0.000000
  0
LINE
  8
0
 10
      -18.570027
 20
       41.800000
 30
        0.000000
 11
      -18.570027
 21
       37.800000
 31
        0.000000
  0
CIRCLE
  8
0
 10
      -21.420002
 20
       39.800000
 30
        0.000000
 40
        2.000000
  0
ARC
  8
0
 10
      -19.070027
 20
       41.800000
 30
        0.000000
 40
        0.500000
 50
        0.000000
 51
       90.000000
  0
ARC
  8
0
 10
      -19.070027
 20
       37.800000
 30
        0.000000
 40
        0.500000
 50
      270.000000
 51
      360.000000
  0
LINE
  8
0
 10
      -24.270039
 20
       41.800000
 30
        0.000000
 11
      -24.270039
 21
       37.800000
 31
        0.000000
  0
ARC
  8
0
 10
      -23.770039
 20
       41.800000
 30
        0.000000
 40
        0.500000
 50
       90.000000
 51
      180.000015
  0
ARC
  8
0
 10
      -23.770039
 20
       37.800000
 30
        0.000000
 40
        0.500000
 50
      180.000015
 51
      270.000000
  0
LINE
  8
0
 10
      -30.454243
 20
       41.214185
 30
        0.000000
 11
      -27.625813
 21
       38.385754
 31
        0.000000
  0
LINE
  8
0
 10
      -28.332966
 20
       40.507153
 30
        0.000000
 11
      -29.747212
 21
       39.092908
 31
        0.000000
  0
LINE
  8
0
 10
      -26.690022
 20
       37.300000
 30
        0.000000
 11
      -31.390034
 21
       37.300000
 31
        0.000000
  0
LINE
  8
0
 10
      -26.690022
 20
       42.300000
 30
        0.000000
 11
      -31.390034
 21
       42.300000
 31
        0.000000
  0
LINE
  8
0
 10
      -26.190022
 20
       41.800000
 30
        0.000000
 11
      -26.190022
 21
       37.800000
 31
        0.000000
  0
CIRCLE
  8
0
 10
      -29.040059
 20
       39.800000
 30
        0.000000
 40
        2.000000
  0
ARC
  8
0
 10
      -26.690022
 20
       41.800000
 30
        0.000000
 40
        0.500000
 50
        0.000000
 51
       90.000000
  0
ARC
  8
0
 10
      -26.690022
 20
       37.800000
 30
        0.000000
 40
        0.500000
 50
      270.000000
 51
      360.000000
  0
LINE
  8
0
 10
      -31.890034
 20
       41.800000
 30
        0.000000
 11
      -31.890034
 21
       37.800000
 31
        0.000000
  0
ARC
  8
0
 10
      -31.390034
 20
       41.800000
 30
        0.000000
 40
        0.500000
 50
       90.000000
 51
      180.000015
  0
ARC
  8
0
 10
      -31.390034
 20
       37.800000
 30
        0.000000
 40
        0.500000
 50
      180.000015
 51
      270.000000
  0
LINE
  8
0
 10
      -38.074238
 20
       41.214185
 30
        0.000000
 11
      -35.245808
 21
       38.385754
 31
        0.000000
  0
LINE
  8
0
 10
      -35.952961
 20
       40.507153
 30
        0.000000
 11
      -37.367207
 21
       39.092908
 31
        0.000000
  0
LINE
  8
0
 10
      -34.310017
 20
       37.300000
 30
        0.000000
 11
      -39.010029
 21
       37.300000
 31
        0.000000
  0
LINE
  8
0
 10
      -34.310017
 20
       42.300000
 30
        0.000000
 11
      -39.010029
 21
       42.300000
 31
        0.000000
  0
LINE
  8
0
 10
      -33.810017
 20
       41.800000
 30
        0.000000
 11
      -33.810017
 21
       37.800000
 31
        0.000000
  0
CIRCLE
  8
0
 10
      -36.660054
 20
       39.800000
 30
        0.000000
 40
        2.000000
  0
ARC
  8
0
 10
      -34.310017
 20
       41.800000
 30
        0.000000
 40
        0.500000
 50
        0.000000
 51
       90.000000
  0
ARC
  8
0
 10
      -34.310017
 20
       37.800000
 30
        0.000000
 40
        0.500000
 50
      270.000000
 51
      360.000000
  0
LINE
  8
0
 10
      -39.510029
 20
       41.800000
 30
        0.000000
 11
      -39.510029
 21
       37.800000
 31
        0.000000
  0
ARC
  8
0
 10
      -39.010029
 20
       41.800000
 30
        0.000000
 40
        0.500000
 50
       90.000000
 51
      180.000015
  0
ARC
  8
0
 10
      -39.010029
 20
       37.800000
 30
        0.000000
 40
        0.500000
 50
      180.000015
 51
      270.000000
  0
LINE
  8
0
 10
      -45.694233
 20
       41.214185
 30
        0.000000
 11
      -42.865803
 21
       38.385754
 31
        0.000000
  0
LINE
  8
0
 10
      -43.572957
 20
       40.507153
 30
        0.000000
 11
      -44.987202
 21
       39.092908
 31
        0.000000
  0
LINE
  8
0
 10
      -41.930012
 20
       37.300000
 30
        0.000000
 11
      -46.630024
 21
       37.300000
 31
        0.000000
  0
LINE
  8
0
 10
      -41.930012
 20
       42.300000
 30
        0.000000
 11
      -46.630024
 21
       42.300000
 31
        0.000000
  0
LINE
  8
0
 10
      -41.430012
 20
       41.800000
 30
        0.000000
 11
      -41.430012
 21
       37.800000
 31
        0.000000
  0
CIRCLE
  8
0
 10
      -44.280049
 20
       39.800000
 30
        0.000000
 40
        2.000000
  0
ARC
  8
0
 10
      -41.930012
 20
       41.800000
 30
        0.000000
 40
        0.500000
 50
        0.000000
 51
       90.000000
  0
ARC
  8
0
 10
      -41.930012
 20
       37.800000
 30
        0.000000
 40
        0.500000
 50
      270.000000
 51
      360.000000
  0
LINE
  8
0
 10
      -47.130024
 20
       41.800000
 30
        0.000000
 11
      -47.130024
 21
       37.800000
 31
        0.000000
  0
ARC
  8
0
 10
      -46.630024
 20
       41.800000
 30
        0.000000
 40
        0.500000
 50
       90.000000
 51
      180.000015
  0
ARC
  8
0
 10
      -46.630024
 20
       37.800000
 30
        0.000000
 40
        0.500000
 50
      180.000015
 51
      270.000000
  0
LINE
  8
0
 10
      -53.314229
 20
       41.214185
 30
        0.000000
 11
      -50.485798
 21
       38.385754
 31
        0.000000
  0
LINE
  8
0
 10
      -51.192952
 20
       40.507153
 30
        0.000000
 11
      -52.607197
 21
       39.092908
 31
        0.000000
  0
LINE
  8
0
 10
      -49.550007
 20
       37.300000
 30
        0.000000
 11
      -54.250020
 21
       37.300000
 31
        0.000000
  0
LINE
  8
0
 10
      -49.550007
 20
       42.300000
 30
        0.000000
 11
      -54.250020
 21
       42.300000
 31
        0.000000
  0
LINE
  8
0
 10
      -49.050007
 20
       41.800000
 30
        0.000000
 11
      -49.050007
 21
       37.800000
 31
        0.000000
  0
CIRCLE
  8
0
 10
      -51.900044
 20
       39.800000
 30
        0.000000
 40
        2.000000
  0
ARC
  8
0
 10
      -49.550007
 20
       41.800000
 30
        0.000000
 40
        0.500000
 50
        0.000000
 51
       90.000000
  0
ARC
  8
0
 10
      -49.550007
 20
       37.800000
 30
        0.000000
 40
        0.500000
 50
      270.000000
 51
      360.000000
  0
LINE
  8
0
 10
      -54.750020
 20
       41.800000
 30
        0.000000
 11
      -54.750020
 21
       37.800000
 31
        0.000000
  0
ARC
  8
0
 10
      -54.250020
 20
       41.800000
 30
        0.000000
 40
        0.500000
 50
       90.000000
 51
      180.000015
  0
ARC
  8
0
 10
      -54.250020
 20
       37.800000
 30
        0.000000
 40
        0.500000
 50
      180.000015
 51
      270.000000
  0
ARC
  8
0
 10
       18.139995
 20
       28.600012
 30
        0.000000
 40
        0.500000
 50
      180.000015
 51
      270.000000
  0
ARC
  8
0
 10
       22.839946
 20
       28.600012
 30
        0.000000
 40
        0.500000
 50
      270.000000
 51
      360.000000
  0
ARC
  8
0
 10
       18.139995
 20
       32.600012
 30
        0.000000
 40
        0.500000
 50
       90.000000
 51
      180.000015
  0
ARC
  8
0
 10
       22.839946
 20
       32.600012
 30
        0.000000
 40
        0.500000
 50
        0.000000
 51
       90.000000
  0
LINE
  8
0
 10
       22.839946
 20
       33.100012
 30
        0.000000
 11
       18.139995
 21
       33.100012
 31
        0.000000
  0
LINE
  8
0
 10
       23.339946
 20
       32.600012
 30
        0.000000
 11
       23.339946
 21
       28.600012
 31
        0.000000
  0
LINE
  8
0
 10
       17.639995
 20
       32.600012
 30
        0.000000
 11
       17.639995
 21
       28.600012
 31
        0.000000
  0
CIRCLE
  8
0
 10
       20.489971
 20
       30.600012
 30
        0.000000
 40
        2.000000
  0
LINE
  8
0
 10
       22.839946
 20
       28.100012
 30
        0.000000
 11
       18.139995
 21
       28.100012
 31
        0.000000
  0
LINE
  8
0
 10
       21.197063
 20
       31.307104
 30
        0.000000
 11
       19.782817
 21
       29.892920
 31
        0.000000
  0
LINE
  8
0
 10
       19.075786
 20
       32.014197
 30
        0.000000
 11
       21.904216
 21
       29.185767
 31
        0.000000
  0
ARC
  8
0
 10
       10.520000
 20
       28.600012
 30
        0.000000
 40
        0.500000
 50
      180.000015
 51
      270.000000
  0
ARC
  8
0
 10
       15.219951
 20
       28.600012
 30
        0.000000
 40
        0.500000
 50
      270.000000
 51
      360.000000
  0
ARC
  8
0
 10
       10.520000
 20
       32.600012
 30
        0.000000
 40
        0.500000
 50
       90.000000
 51
      180.000015
  0
ARC
  8
0
 10
       15.219951
 20
       32.600012
 30
        0.000000
 40
        0.500000
 50
        0.000000
 51
       90.000000
  0
LINE
  8
0
 10
       15.219951
 20
       33.100012
 30
        0.000000
 11
       10.520000
 21
       33.100012
 31
        0.000000
  0
LINE
  8
0
 10
       15.719951
 20
       32.600012
 30
        0.000000
 11
       15.719951
 21
       28.600012
 31
        0.000000
  0
LINE
  8
0
 10
       10.020000
 20
       32.600012
 30
        0.000000
 11
       10.020000
 21
       28.600012
 31
        0.000000
  0
CIRCLE
  8
0
 10
       12.869976
 20
       30.600012
 30
        0.000000
 40
        2.000000
  0
LINE
  8
0
 10
       15.219951
 20
       28.100012
 30
        0.000000
 11
       10.520000
 21
       28.100012
 31
        0.000000
  0
LINE
  8
0
 10
       13.577068
 20
       31.307104
 30
        0.000000
 11
       12.162822
 21
       29.892920
 31
        0.000000
  0
LINE
  8
0
 10
       11.455791
 20
       32.014197
 30
        0.000000
 11
       14.284221
 21
       29.185767
 31
        0.000000
  0
ARC
  8
0
 10
        2.900005
 20
       28.600012
 30
        0.000000
 40
        0.500000
 50
      180.000015
 51
      270.000000
  0
ARC
  8
0
 10
        7.599956
 20
       28.600012
 30
        0.000000
 40
        0.500000
 50
      270.000000
 51
      360.000000
  0
ARC
  8
0
 10
        2.900005
 20
       32.600012
 30
        0.000000
 40
        0.500000
 50
       90.000000
 51
      180.000015
  0
ARC
  8
0
 10
        7.599956
 20
       32.600012
 30
        0.000000
 40
        0.500000
 50
        0.000000
 51
       90.000000
  0
LINE
  8
0
 10
        7.599956
 20
       33.100012
 30
        0.000000
 11
        2.900005
 21
       33.100012
 31
        0.000000
  0
LINE
  8
0
 10
        8.099956
 20
       32.600012
 30
        0.000000
 11
        8.099956
 21
       28.600012
 31
        0.000000
  0
LINE
  8
0
 10
        2.400005
 20
       32.600012
 30
        0.000000
 11
        2.400005
 21
       28.600012
 31
        0.000000
  0
CIRCLE
  8
0
 10
        5.249980
 20
       30.600012
 30
        0.000000
 40
        2.000000
  0
LINE
  8
0
 10
        7.599956
 20
       28.100012
 30
        0.000000
 11
        2.900005
 21
       28.100012
 31
        0.000000
  0
LINE
  8
0
 10
        5.957012
 20
       31.307104
 30
        0.000000
 11
        4.542827
 21
       29.892920
 31
        0.000000
  0
LINE
  8
0
 10
        3.835796
 20
       32.014197
 30
        0.000000
 11
        6.664165
 21
       29.185767
 31
        0.000000
  0
ARC
  8
0
 10
       -4.719990
 20
       28.600012
 30
        0.000000
 40
        0.500000
 50
      180.000015
 51
      270.000000
  0
ARC
  8
0
 10
       -0.020039
 20
       28.600012
 30
        0.000000
 40
        0.500000
 50
      270.000000
 51
      360.000000
  0
ARC
  8
0
 10
       -4.719990
 20
       32.600012
 30
        0.000000
 40
        0.500000
 50
       90.000000
 51
      180.000015
  0
ARC
  8
0
 10
       -0.020039
 20
       32.600012
 30
        0.000000
 40
        0.500000
 50
        0.000000
 51
       90.000000
  0
LINE
  8
0
 10
       -0.020039
 20
       33.100012
 30
        0.000000
 11
       -4.719990
 21
       33.100012
 31
        0.000000
  0
LINE
  8
0
 10
        0.479961
 20
       32.600012
 30
        0.000000
 11
        0.479961
 21
       28.600012
 31
        0.000000
  0
LINE
  8
0
 10
       -5.219990
 20
       32.600012
 30
        0.000000
 11
       -5.219990
 21
       28.600012
 31
        0.000000
  0
CIRCLE
  8
0
 10
       -2.370015
 20
       30.600012
 30
        0.000000
 40
        2.000000
  0
LINE
  8
0
 10
       -0.020039
 20
       28.100012
 30
        0.000000
 11
       -4.719990
 21
       28.100012
 31
        0.000000
  0
LINE
  8
0
 10
       -1.662983
 20
       31.307104
 30
        0.000000
 11
       -3.077168
 21
       29.892920
 31
        0.000000
  0
LINE
  8
0
 10
       -3.784199
 20
       32.014197
 30
        0.000000
 11
       -0.955830
 21
       29.185767
 31
        0.000000
  0
ARC
  8
0
 10
      -12.339985
 20
       28.600012
 30
        0.000000
 40
        0.500000
 50
      180.000015
 51
      270.000000
  0
ARC
  8
0
 10
       -7.640034
 20
       28.600012
 30
        0.000000
 40
        0.500000
 50
      270.000000
 51
      360.000000
  0
ARC
  8
0
 10
      -12.339985
 20
       32.600012
 30
        0.000000
 40
        0.500000
 50
       90.000000
 51
      180.000015
  0
ARC
  8
0
 10
       -7.640034
 20
       32.600012
 30
        0.000000
 40
        0.500000
 50
        0.000000
 51
       90.000000
  0
LINE
  8
0
 10
       -7.640034
 20
       33.100012
 30
        0.000000
 11
      -12.339985
 21
       33.100012
 31
        0.000000
  0
LINE
  8
0
 10
       -7.140034
 20
       32.600012
 30
        0.000000
 11
       -7.140034
 21
       28.600012
 31
        0.000000
  0
LINE
  8
0
 10
      -12.839985
 20
       32.600012
 30
        0.000000
 11
      -12.839985
 21
       28.600012
 31
        0.000000
  0
CIRCLE
  8
0
 10
       -9.990010
 20
       30.600012
 30
        0.000000
 40
        2.000000
  0
LINE
  8
0
 10
       -7.640034
 20
       28.100012
 30
        0.000000
 11
      -12.339985
 21
       28.100012
 31
        0.000000
  0
LINE
  8
0
 10
       -9.282979
 20
       31.307104
 30
        0.000000
 11
      -10.697163
 21
       29.892920
 31
        0.000000
  0
LINE
  8
0
 10
      -11.404194
 20
       32.014197
 30
        0.000000
 11
       -8.575825
 21
       29.185767
 31
        0.000000
  0
ARC
  8
0
 10
      -19.959980
 20
       28.600012
 30
        0.000000
 40
        0.500000
 50
      180.000015
 51
      270.000000
  0
ARC
  8
0
 10
      -15.260029
 20
       28.600012
 30
        0.000000
 40
        0.500000
 50
      270.000000
 51
      360.000000
  0
ARC
  8
0
 10
      -19.959980
 20
       32.600012
 30
        0.000000
 40
        0.500000
 50
       90.000000
 51
      180.000015
  0
ARC
  8
0
 10
      -15.260029
 20
       32.600012
 30
        0.000000
 40
        0.500000
 50
        0.000000
 51
       90.000000
  0
LINE
  8
0
 10
      -15.260029
 20
       33.100012
 30
        0.000000
 11
      -19.959980
 21
       33.100012
 31
        0.000000
  0
LINE
  8
0
 10
      -14.760029
 20
       32.600012
 30
        0.000000
 11
      -14.760029
 21
       28.600012
 31
        0.000000
  0
LINE
  8
0
 10
      -20.459980
 20
       32.600012
 30
        0.000000
 11
      -20.459980
 21
       28.600012
 31
        0.000000
  0
CIRCLE
  8
0
 10
      -17.610005
 20
       30.600012
 30
        0.000000
 40
        2.000000
  0
LINE
  8
0
 10
      -15.260029
 20
       28.100012
 30
        0.000000
 11
      -19.959980
 21
       28.100012
 31
        0.000000
  0
LINE
  8
0
 10
      -16.902974
 20
       31.307104
 30
        0.000000
 11
      -18.317158
 21
       29.892920
 31
        0.000000
  0
LINE
  8
0
 10
      -19.024189
 20
       32.014197
 30
        0.000000
 11
      -16.195820
 21
       29.185767
 31
        0.000000
  0
ARC
  8
0
 10
      -27.579976
 20
       28.600012
 30
        0.000000
 40
        0.500000
 50
      180.000015
 51
      270.000000
  0
ARC
  8
0
 10
      -22.880024
 20
       28.600012
 30
        0.000000
 40
        0.500000
 50
      270.000000
 51
      360.000000
  0
ARC
  8
0
 10
      -27.579976
 20
       32.600012
 30
        0.000000
 40
        0.500000
 50
       90.000000
 51
      180.000015
  0
ARC
  8
0
 10
      -22.880024
 20
       32.600012
 30
        0.000000
 40
        0.500000
 50
        0.000000
 51
       90.000000
  0
LINE
  8
0
 10
      -22.880024
 20
       33.100012
 30
        0.000000
 11
      -27.579976
 21
       33.100012
 31
        0.000000
  0
LINE
  8
0
 10
      -22.380024
 20
       32.600012
 30
        0.000000
 11
      -22.380024
 21
       28.600012
 31
        0.000000
  0
LINE
  8
0
 10
      -28.079976
 20
       32.600012
 30
        0.000000
 11
      -28.079976
 21
       28.600012
 31
        0.000000
  0
CIRCLE
  8
0
 10
      -25.230000
 20
       30.600012
 30
        0.000000
 40
        2.000000
  0
LINE
  8
0
 10
      -22.880024
 20
       28.100012
 30
        0.000000
 11
      -27.579976
 21
       28.100012
 31
        0.000000
  0
LINE
  8
0
 10
      -24.522969
 20
       31.307104
 30
        0.000000
 11
      -25.937153
 21
       29.892920
 31
        0.000000
  0
LINE
  8
0
 10
      -26.644185
 20
       32.014197
 30
        0.000000
 11
      -23.815815
 21
       29.185767
 31
        0.000000
  0
ARC
  8
0
 10
      -35.200032
 20
       28.600012
 30
        0.000000
 40
        0.500000
 50
      180.000015
 51
      270.000000
  0
ARC
  8
0
 10
      -30.500020
 20
       28.600012
 30
        0.000000
 40
        0.500000
 50
      270.000000
 51
      360.000000
  0
ARC
  8
0
 10
      -35.200032
 20
       32.600012
 30
        0.000000
 40
        0.500000
 50
       90.000000
 51
      180.000015
  0
ARC
  8
0
 10
      -30.500020
 20
       32.600012
 30
        0.000000
 40
        0.500000
 50
        0.000000
 51
       90.000000
  0
LINE
  8
0
 10
      -30.500020
 20
       33.100012
 30
        0.000000
 11
      -35.200032
 21
       33.100012
 31
        0.000000
  0
LINE
  8
0
 10
      -30.000020
 20
       32.600012
 30
        0.000000
 11
      -30.000020
 21
       28.600012
 31
        0.000000
  0
LINE
  8
0
 10
      -35.700032
 20
       32.600012
 30
        0.000000
 11
      -35.700032
 21
       28.600012
 31
        0.000000
  0
CIRCLE
  8
0
 10
      -32.849995
 20
       30.600012
 30
        0.000000
 40
        2.000000
  0
LINE
  8
0
 10
      -30.500020
 20
       28.100012
 30
        0.000000
 11
      -35.200032
 21
       28.100012
 31
        0.000000
  0
LINE
  8
0
 10
      -32.142964
 20
       31.307104
 30
        0.000000
 11
      -33.557148
 21
       29.892920
 31
        0.000000
  0
LINE
  8
0
 10
      -34.264241
 20
       32.014197
 30
        0.000000
 11
      -31.435811
 21
       29.185767
 31
        0.000000
  0
ARC
  8
0
 10
      -42.820027
 20
       28.600012
 30
        0.000000
 40
        0.500000
 50
      180.000015
 51
      270.000000
  0
ARC
  8
0
 10
      -38.120015
 20
       28.600012
 30
        0.000000
 40
        0.500000
 50
      270.000000
 51
      360.000000
  0
ARC
  8
0
 10
      -42.820027
 20
       32.600012
 30
        0.000000
 40
        0.500000
 50
       90.000000
 51
      180.000015
  0
ARC
  8
0
 10
      -38.120015
 20
       32.600012
 30
        0.000000
 40
        0.500000
 50
        0.000000
 51
       90.000000
  0
LINE
  8
0
 10
      -38.120015
 20
       33.100012
 30
        0.000000
 11
      -42.820027
 21
       33.100012
 31
        0.000000
  0
LINE
  8
0
 10
      -37.620015
 20
       32.600012
 30
        0.000000
 11
      -37.620015
 21
       28.600012
 31
        0.000000
  0
LINE
  8
0
 10
      -43.320027
 20
       32.600012
 30
        0.000000
 11
      -43.320027
 21
       28.600012
 31
        0.000000
  0
CIRCLE
  8
0
 10
      -40.469990
 20
       30.600012
 30
        0.000000
 40
        2.000000
  0
LINE
  8
0
 10
      -38.120015
 20
       28.100012
 30
        0.000000
 11
      -42.820027
 21
       28.100012
 31
        0.000000
  0
LINE
  8
0
 10
      -39.762959
 20
       31.307104
 30
        0.000000
 11
      -41.177144
 21
       29.892920
 31
        0.000000
  0
LINE
  8
0
 10
      -41.884236
 20
       32.014197
 30
        0.000000
 11
      -39.055806
 21
       29.185767
 31
        0.000000
  0
ARC
  8
0
 10
      -50.440022
 20
       28.600012
 30
        0.000000
 40
        0.500000
 50
      180.000015
 51
      270.000000
  0
ARC
  8
0
 10
      -45.740010
 20
       28.600012
 30
        0.000000
 40
        0.500000
 50
      270.000000
 51
      360.000000
  0
ARC
  8
0
 10
      -50.440022
 20
       32.600012
 30
        0.000000
 40
        0.500000
 50
       90.000000
 51
      180.000015
  0
ARC
  8
0
 10
      -45.740010
 20
       32.600012
 30
        0.000000
 40
        0.500000
 50
        0.000000
 51
       90.000000
  0
LINE
  8
0
 10
      -45.740010
 20
       33.100012
 30
        0.000000
 11
      -50.440022
 21
       33.100012
 31
        0.000000
  0
LINE
  8
0
 10
      -45.240010
 20
       32.600012
 30
        0.000000
 11
      -45.240010
 21
       28.600012
 31
        0.000000
  0
LINE
  8
0
 10
      -50.940022
 20
       32.600012
 30
        0.000000
 11
      -50.940022
 21
       28.600012
 31
        0.000000
  0
CIRCLE
  8
0
 10
      -48.089985
 20
       30.600012
 30
        0.000000
 40
        2.000000
  0
LINE
  8
0
 10
      -45.740010
 20
       28.100012
 30
        0.000000
 11
      -50.440022
 21
       28.100012
 31
        0.000000
  0
LINE
  8
0
 10
      -47.382954
 20
       31.307104
 30
        0.000000
 11
      -48.797139
 21
       29.892920
 31
        0.000000
  0
LINE
  8
0
 10
      -49.504231
 20
       32.014197
 30
        0.000000
 11
      -46.675801
 21
       29.185767
 31
        0.000000
  0
CIRCLE
  8
0
 10
       56.990000
 20
       13.000000
 30
        0.000000
 40
        1.500000
  0
CIRCLE
  8
0
 10
       56.990000
 20
       13.000000
 30
        0.000000
 40
        4.000000
  0
LINE
  8
0
 10
       64.990000
 20
        3.400000
 30
        0.000000
 11
      -65.010000
 21
        3.400000
 31
        0.000000
  0
LINE
  8
0
 10
       64.990000
 20
        5.400000
 30
        0.000000
 11
      -65.010000
 21
        5.400000
 31
        0.000000
  0
LINE
  8
0
 10
       64.990000
 20
       -0.200000
 30
        0.000000
 11
      -65.010000
 21
       -0.200000
 31
        0.000000
  0
LINE
  8
0
 10
       64.990000
 20
       -2.200000
 30
        0.000000
 11
      -65.010000
 21
       -2.200000
 31
        0.000000
  0
LINE
  8
0
 10
       64.990000
 20
       -7.800000
 30
        0.000000
 11
      -65.010000
 21
       -7.800000
 31
        0.000000
  0
LINE
  8
0
 10
       64.990000
 20
       -5.800000
 30
        0.000000
 11
      -65.010000
 21
       -5.800000
 31
        0.000000
  0
LINE
  8
0
 10
       64.990000
 20
      -11.400000
 30
        0.000000
 11
      -65.010000
 21
      -11.400000
 31
        0.000000
  0
LINE
  8
0
 10
       64.990000
 20
      -13.400000
 30
        0.000000
 11
      -65.010000
 21
      -13.400000
 31
        0.000000
  0
LINE
  8
0
 10
       64.990000
 20
      -19.000000
 30
        0.000000
 11
      -65.010000
 21
      -19.000000
 31
        0.000000
  0
LINE
  8
0
 10
       64.990000
 20
      -17.000000
 30
        0.000000
 11
      -65.010000
 21
      -17.000000
 31
        0.000000
  0
LINE
  8
0
 10
       64.990000
 20
      -22.600000
 30
        0.000000
 11
      -65.010000
 21
      -22.600000
 31
        0.000000
  0
LINE
  8
0
 10
       64.990000
 20
      -24.600000
 30
        0.000000
 11
      -65.010000
 21
      -24.600000
 31
        0.000000
  0
LINE
  8
0
 10
       64.990000
 20
      -30.200000
 30
        0.000000
 11
      -65.010000
 21
      -30.200000
 31
        0.000000
  0
LINE
  8
0
 10
       64.990000
 20
      -28.200000
 30
        0.000000
 11
      -65.010000
 21
      -28.200000
 31
        0.000000
  0
LINE
  8
0
 10
       64.990000
 20
      -33.800000
 30
        0.000000
 11
      -65.010000
 21
      -33.800000
 31
        0.000000
  0
LINE
  8
0
 10
       64.990000
 20
      -35.800000
 30
        0.000000
 11
      -65.010000
 21
      -35.800000
 31
        0.000000
  0
ARC
  8
0
 10
      -63.010000
 20
      -44.000000
 30
        0.000000
 40
        2.000000
 50
      179.999990
 51
      270.000000
  0
LINE
  8
0
 10
       62.990000
 20
      -46.000000
 30
        0.000000
 11
      -63.010000
 21
      -46.000000
 31
        0.000000
  0
ARC
  8
0
 10
       62.990000
 20
      -44.000000
 30
        0.000000
 40
        2.000000
 50
      270.000000
 51
      360.000000
  0
LINE
  8
0
 10
       61.990000
 20
        5.400000
 30
        0.000000
 11
       61.990000
 21
        3.400000
 31
        0.000000
  0
LINE
  8
0
 10
      -51.010000
 20
        5.400000
 30
        0.000000
 11
      -51.010000
 21
        3.400000
 31
        0.000000
  0
LINE
  8
0
 10
      -49.010000
 20
        5.400000
 30
        0.000000
 11
      -49.010000
 21
        3.400000
 31
        0.000000
  0
LINE
  8
0
 10
      -26.010000
 20
        5.400000
 30
        0.000000
 11
      -26.010000
 21
        3.400000
 31
        0.000000
  0
LINE
  8
0
 10
      -24.010000
 20
        5.400000
 30
        0.000000
 11
      -24.010000
 21
        3.400000
 31
        0.000000
  0
LINE
  8
0
 10
       -1.010000
 20
        5.400000
 30
        0.000000
 11
       -1.010000
 21
        3.400000
 31
        0.000000
  0
LINE
  8
0
 10
        0.990000
 20
        5.400000
 30
        0.000000
 11
        0.990000
 21
        3.400000
 31
        0.000000
  0
LINE
  8
0
 10
       23.990000
 20
        5.400000
 30
        0.000000
 11
       23.990000
 21
        3.400000
 31
        0.000000
  0
LINE
  8
0
 10
       25.990000
 20
        5.400000
 30
        0.000000
 11
       25.990000
 21
        3.400000
 31
        0.000000
  0
LINE
  8
0
 10
       48.990000
 20
        5.400000
 30
        0.000000
 11
       48.990000
 21
        3.400000
 31
        0.000000
  0
LINE
  8
0
 10
       50.990000
 20
        5.400000
 30
        0.000000
 11
       50.990000
 21
        3.400000
 31
        0.000000
  0
LINE
  8
0
 10
      -62.010000
 20
        5.400000
 30
        0.000000
 11
      -62.010000
 21
        3.400000
 31
        0.000000
  0
LINE
  8
0
 10
       61.990000
 20
       -0.200000
 30
        0.000000
 11
       61.990000
 21
       -2.200000
 31
        0.000000
  0
LINE
  8
0
 10
      -51.010000
 20
       -0.200000
 30
        0.000000
 11
      -51.010000
 21
       -2.200000
 31
        0.000000
  0
LINE
  8
0
 10
      -49.010000
 20
       -0.200000
 30
        0.000000
 11
      -49.010000
 21
       -2.200000
 31
        0.000000
  0
LINE
  8
0
 10
      -26.010000
 20
       -0.200000
 30
        0.000000
 11
      -26.010000
 21
       -2.200000
 31
        0.000000
  0
LINE
  8
0
 10
      -24.010000
 20
       -0.200000
 30
        0.000000
 11
      -24.010000
 21
       -2.200000
 31
        0.000000
  0
LINE
  8
0
 10
       -1.010000
 20
       -0.200000
 30
        0.000000
 11
       -1.010000
 21
       -2.200000
 31
        0.000000
  0
LINE
  8
0
 10
        0.990000
 20
       -0.200000
 30
        0.000000
 11
        0.990000
 21
       -2.200000
 31
        0.000000
  0
LINE
  8
0
 10
       23.990000
 20
       -0.200000
 30
        0.000000
 11
       23.990000
 21
       -2.200000
 31
        0.000000
  0
LINE
  8
0
 10
       25.990000
 20
       -0.200000
 30
        0.000000
 11
       25.990000
 21
       -2.200000
 31
        0.000000
  0
LINE
  8
0
 10
       48.990000
 20
       -0.200000
 30
        0.000000
 11
       48.990000
 21
       -2.200000
 31
        0.000000
  0
LINE
  8
0
 10
       50.990000
 20
       -0.200000
 30
        0.000000
 11
       50.990000
 21
       -2.200000
 31
        0.000000
  0
LINE
  8
0
 10
      -62.010000
 20
       -0.200000
 30
        0.000000
 11
      -62.010000
 21
       -2.200000
 31
        0.000000
  0
LINE
  8
0
 10
      -62.010000
 20
       -5.800000
 30
        0.000000
 11
      -62.010000
 21
       -7.800000
 31
        0.000000
  0
LINE
  8
0
 10
       50.990000
 20
       -5.800000
 30
        0.000000
 11
       50.990000
 21
       -7.800000
 31
        0.000000
  0
LINE
  8
0
 10
       48.990000
 20
       -5.800000
 30
        0.000000
 11
       48.990000
 21
       -7.800000
 31
        0.000000
  0
LINE
  8
0
 10
       25.990000
 20
       -5.800000
 30
        0.000000
 11
       25.990000
 21
       -7.800000
 31
        0.000000
  0
LINE
  8
0
 10
       23.990000
 20
       -5.800000
 30
        0.000000
 11
       23.990000
 21
       -7.800000
 31
        0.000000
  0
LINE
  8
0
 10
        0.990000
 20
       -5.800000
 30
        0.000000
 11
        0.990000
 21
       -7.800000
 31
        0.000000
  0
LINE
  8
0
 10
       -1.010000
 20
       -5.800000
 30
        0.000000
 11
       -1.010000
 21
       -7.800000
 31
        0.000000
  0
LINE
  8
0
 10
      -24.010000
 20
       -5.800000
 30
        0.000000
 11
      -24.010000
 21
       -7.800000
 31
        0.000000
  0
LINE
  8
0
 10
      -26.010000
 20
       -5.800000
 30
        0.000000
 11
      -26.010000
 21
       -7.800000
 31
        0.000000
  0
LINE
  8
0
 10
      -49.010000
 20
       -5.800000
 30
        0.000000
 11
      -49.010000
 21
       -7.800000
 31
        0.000000
  0
LINE
  8
0
 10
      -51.010000
 20
       -5.800000
 30
        0.000000
 11
      -51.010000
 21
       -7.800000
 31
        0.000000
  0
LINE
  8
0
 10
       61.990000
 20
       -5.800000
 30
        0.000000
 11
       61.990000
 21
       -7.800000
 31
        0.000000
  0
LINE
  8
0
 10
       61.990000
 20
      -11.400000
 30
        0.000000
 11
       61.990000
 21
      -13.400000
 31
        0.000000
  0
LINE
  8
0
 10
      -51.010000
 20
      -11.400000
 30
        0.000000
 11
      -51.010000
 21
      -13.400000
 31
        0.000000
  0
LINE
  8
0
 10
      -49.010000
 20
      -11.400000
 30
        0.000000
 11
      -49.010000
 21
      -13.400000
 31
        0.000000
  0
LINE
  8
0
 10
      -26.010000
 20
      -11.400000
 30
        0.000000
 11
      -26.010000
 21
      -13.400000
 31
        0.000000
  0
LINE
  8
0
 10
      -24.010000
 20
      -11.400000
 30
        0.000000
 11
      -24.010000
 21
      -13.400000
 31
        0.000000
  0
LINE
  8
0
 10
       -1.010000
 20
      -11.400000
 30
        0.000000
 11
       -1.010000
 21
      -13.400000
 31
        0.000000
  0
LINE
  8
0
 10
        0.990000
 20
      -11.400000
 30
        0.000000
 11
        0.990000
 21
      -13.400000
 31
        0.000000
  0
LINE
  8
0
 10
       23.990000
 20
      -11.400000
 30
        0.000000
 11
       23.990000
 21
      -13.400000
 31
        0.000000
  0
LINE
  8
0
 10
       25.990000
 20
      -11.400000
 30
        0.000000
 11
       25.990000
 21
      -13.400000
 31
        0.000000
  0
LINE
  8
0
 10
       48.990000
 20
      -11.400000
 30
        0.000000
 11
       48.990000
 21
      -13.400000
 31
        0.000000
  0
LINE
  8
0
 10
       50.990000
 20
      -11.400000
 30
        0.000000
 11
       50.990000
 21
      -13.400000
 31
        0.000000
  0
LINE
  8
0
 10
      -62.010000
 20
      -11.400000
 30
        0.000000
 11
      -62.010000
 21
      -13.400000
 31
        0.000000
  0
LINE
  8
0
 10
      -62.010000
 20
      -17.000000
 30
        0.000000
 11
      -62.010000
 21
      -19.000000
 31
        0.000000
  0
LINE
  8
0
 10
       50.990000
 20
      -17.000000
 30
        0.000000
 11
       50.990000
 21
      -19.000000
 31
        0.000000
  0
LINE
  8
0
 10
       48.990000
 20
      -17.000000
 30
        0.000000
 11
       48.990000
 21
      -19.000000
 31
        0.000000
  0
LINE
  8
0
 10
       25.990000
 20
      -17.000000
 30
        0.000000
 11
       25.990000
 21
      -19.000000
 31
        0.000000
  0
LINE
  8
0
 10
       23.990000
 20
      -17.000000
 30
        0.000000
 11
       23.990000
 21
      -19.000000
 31
        0.000000
  0
LINE
  8
0
 10
        0.990000
 20
      -17.000000
 30
        0.000000
 11
        0.990000
 21
      -19.000000
 31
        0.000000
  0
LINE
  8
0
 10
       -1.010000
 20
      -17.000000
 30
        0.000000
 11
       -1.010000
 21
      -19.000000
 31
        0.000000
  0
LINE
  8
0
 10
      -24.010000
 20
      -17.000000
 30
        0.000000
 11
      -24.010000
 21
      -19.000000
 31
        0.000000
  0
LINE
  8
0
 10
      -26.010000
 20
      -17.000000
 30
        0.000000
 11
      -26.010000
 21
      -19.000000
 31
        0.000000
  0
LINE
  8
0
 10
      -49.010000
 20
      -17.000000
 30
        0.000000
 11
      -49.010000
 21
      -19.000000
 31
        0.000000
  0
LINE
  8
0
 10
      -51.010000
 20
      -17.000000
 30
        0.000000
 11
      -51.010000
 21
      -19.000000
 31
        0.000000
  0
LINE
  8
0
 10
       61.990000
 20
      -17.000000
 30
        0.000000
 11
       61.990000
 21
      -19.000000
 31
        0.000000
  0
LINE
  8
0
 10
       61.990000
 20
      -22.600000
 30
        0.000000
 11
       61.990000
 21
      -24.600000
 31
        0.000000
  0
LINE
  8
0
 10
      -51.010000
 20
      -22.600000
 30
        0.000000
 11
      -51.010000
 21
      -24.600000
 31
        0.000000
  0
LINE
  8
0
 10
      -49.010000
 20
      -22.600000
 30
        0.000000
 11
      -49.010000
 21
      -24.600000
 31
        0.000000
  0
LINE
  8
0
 10
      -26.010000
 20
      -22.600000
 30
        0.000000
 11
      -26.010000
 21
      -24.600000
 31
        0.000000
  0
LINE
  8
0
 10
      -24.010000
 20
      -22.600000
 30
        0.000000
 11
      -24.010000
 21
      -24.600000
 31
        0.000000
  0
LINE
  8
0
 10
       -1.010000
 20
      -22.600000
 30
        0.000000
 11
       -1.010000
 21
      -24.600000
 31
        0.000000
  0
LINE
  8
0
 10
        0.990000
 20
      -22.600000
 30
        0.000000
 11
        0.990000
 21
      -24.600000
 31
        0.000000
  0
LINE
  8
0
 10
       23.990000
 20
      -22.600000
 30
        0.000000
 11
       23.990000
 21
      -24.600000
 31
        0.000000
  0
LINE
  8
0
 10
       25.990000
 20
      -22.600000
 30
        0.000000
 11
       25.990000
 21
      -24.600000
 31
        0.000000
  0
LINE
  8
0
 10
       48.990000
 20
      -22.600000
 30
        0.000000
 11
       48.990000
 21
      -24.600000
 31
        0.000000
  0
LINE
  8
0
 10
       50.990000
 20
      -22.600000
 30
        0.000000
 11
       50.990000
 21
      -24.600000
 31
        0.000000
  0
LINE
  8
0
 10
      -62.010000
 20
      -22.600000
 30
        0.000000
 11
      -62.010000
 21
      -24.600000
 31
        0.000000
  0
LINE
  8
0
 10
      -62.010000
 20
      -28.200000
 30
        0.000000
 11
      -62.010000
 21
      -30.200000
 31
        0.000000
  0
LINE
  8
0
 10
       50.990000
 20
      -28.200000
 30
        0.000000
 11
       50.990000
 21
      -30.200000
 31
        0.000000
  0
LINE
  8
0
 10
       48.990000
 20
      -28.200000
 30
        0.000000
 11
       48.990000
 21
      -30.200000
 31
        0.000000
  0
LINE
  8
0
 10
       25.990000
 20
      -28.200000
 30
        0.000000
 11
       25.990000
 21
      -30.200000
 31
        0.000000
  0
LINE
  8
0
 10
       23.990000
 20
      -28.200000
 30
        0.000000
 11
       23.990000
 21
      -30.200000
 31
        0.000000
  0
LINE
  8
0
 10
        0.990000
 20
      -28.200000
 30
        0.000000
 11
        0.990000
 21
      -30.200000
 31
        0.000000
  0
LINE
  8
0
 10
       -1.010000
 20
      -28.200000
 30
        0.000000
 11
       -1.010000
 21
      -30.200000
 31
        0.000000
  0
LINE
  8
0
 10
      -24.010000
 20
      -28.200000
 30
        0.000000
 11
      -24.010000
 21
      -30.200000
 31
        0.000000
  0
LINE
  8
0
 10
      -26.010000
 20
      -28.200000
 30
        0.000000
 11
      -26.010000
 21
      -30.200000
 31
        0.000000
  0
LINE
  8
0
 10
      -49.010000
 20
      -28.200000
 30
        0.000000
 11
      -49.010000
 21
      -30.200000
 31
        0.000000
  0
LINE
  8
0
 10
      -51.010000
 20
      -28.200000
 30
        0.000000
 11
      -51.010000
 21
      -30.200000
 31
        0.000000
  0
LINE
  8
0
 10
       61.990000
 20
      -28.200000
 30
        0.000000
 11
       61.990000
 21
      -30.200000
 31
        0.000000
  0
LINE
  8
0
 10
       61.990000
 20
      -33.800000
 30
        0.000000
 11
       61.990000
 21
      -35.800000
 31
        0.000000
  0
LINE
  8
0
 10
      -51.010000
 20
      -33.800000
 30
        0.000000
 11
      -51.010000
 21
      -35.800000
 31
        0.000000
  0
LINE
  8
0
 10
      -49.010000
 20
      -33.800000
 30
        0.000000
 11
      -49.010000
 21
      -35.800000
 31
        0.000000
  0
LINE
  8
0
 10
      -26.010000
 20
      -33.800000
 30
        0.000000
 11
      -26.010000
 21
      -35.800000
 31
        0.000000
  0
LINE
  8
0
 10
      -24.010000
 20
      -33.800000
 30
        0.000000
 11
      -24.010000
 21
      -35.800000
 31
        0.000000
  0
LINE
  8
0
 10
       -1.010000
 20
      -33.800000
 30
        0.000000
 11
       -1.010000
 21
      -35.800000
 31
        0.000000
  0
LINE
  8
0
 10
        0.990000
 20
      -33.800000
 30
        0.000000
 11
        0.990000
 21
      -35.800000
 31
        0.000000
  0
LINE
  8
0
 10
       23.990000
 20
      -33.800000
 30
        0.000000
 11
       23.990000
 21
      -35.800000
 31
        0.000000
  0
LINE
  8
0
 10
       25.990000
 20
      -33.800000
 30
        0.000000
 11
       25.990000
 21
      -35.800000
 31
        0.000000
  0
LINE
  8
0
 10
       48.990000
 20
      -33.800000
 30
        0.000000
 11
       48.990000
 21
      -35.800000
 31
        0.000000
  0
LINE
  8
0
 10
       50.990000
 20
      -33.800000
 30
        0.000000
 11
       50.990000
 21
      -35.800000
 31
        0.000000
  0
LINE
  8
0
 10
      -62.010000
 20
      -33.800000
 30
        0.000000
 11
      -62.010000
 21
      -35.800000
 31
        0.000000
  0
ARC
  8
0
 10
       62.990000
 20
       44.000000
 30
        0.000000
 40
        2.000000
 50
        0.000000
 51
       90.000000
  0
LINE
  8
0
 10
      -59.310000
 20
       46.000000
 30
        0.000000
 11
      -63.010000
 21
       46.000000
 31
        0.000000
  0
ARC
  8
0
 10
      -63.010000
 20
       44.000000
 30
        0.000000
 40
        2.000000
 50
       90.000000
 51
      179.999990
  0
LINE
  8
0
 10
      -65.010000
 20
       44.000000
 30
        0.000000
 11
      -65.010000
 21
      -44.000000
 31
        0.000000
  0
LINE
  8
0
 10
       64.990000
 20
       44.000000
 30
        0.000000
 11
       64.990000
 21
      -44.000000
 31
        0.000000
  0
LINE
  8
0
 10
       62.990000
 20
       46.000000
 30
        0.000000
 11
       27.890049
 21
       46.000000
 31
        0.000000
  0
LINE
  8
0
 10
      -59.310000
 20
       46.000000
 30
        0.000000
 11
      -59.310000
 21
       25.900024
 31
        0.000000
  0
LINE
  8
0
 10
      -59.310000
 20
       25.900024
 30
        0.000000
 11
       27.890049
 21
       25.900024
 31
        0.000000
  0
LINE
  8
0
 10
       27.890049
 20
       46.000000
 30
        0.000000
 11
       27.890049
 21
       25.900024
 31
        0.000000
  0
LINE
  8
0
 10
       65.000000
 20
       83.500000
 30
        0.000000
 11
       65.000000
 21
       70.500000
 31
        0.000000
  0
ARC
  8
0
 10
       63.000000
 20
       96.500000
 30
        0.000000
 40
        2.000000
 50
        0.000000
 51
       90.000000
  0
LINE
  8
0
 10
       65.000000
 20
       83.500000
 30
        0.000000
 11
       65.000000
 21
       96.500000
 31
        0.000000
  0
TEXT
  8
0
 62
  2
 10
      200.981038
 20
       58.666809
 30
        0.000000
 40
        3.340000
  1
ＡＮＧＬＥ
 50
        0.000000
 41
        1.000000
 51
        0.000000
  7
BIGFONT
  0
LINE
  8
1
  6
CONTINUOUS
 10
      223.000000
 20
      -77.455994
 30
        0.000000
 11
      213.000000
 21
      -77.455994
 31
        0.000000
  0
LINE
  8
1
  6
CONTINUOUS
 10
      223.000000
 20
      -75.855994
 30
        0.000000
 11
      223.000000
 21
      -77.455994
 31
        0.000000
  0
LINE
  8
1
  6
CONTINUOUS
 10
      223.000000
 20
      -75.855994
 30
        0.000000
 11
      213.000000
 21
      -75.855994
 31
        0.000000
  0
LINE
  8
1
  6
CONTINUOUS
 10
      222.500000
 20
      -45.500000
 30
        0.000000
 11
      200.500000
 21
      -45.500000
 31
        0.000000
  0
LINE
  8
1
  6
CONTINUOUS
 10
      222.500000
 20
      -45.500000
 30
        0.000000
 11
      223.000000
 21
      -45.000000
 31
        0.000000
  0
LINE
  8
1
  6
CONTINUOUS
 10
      223.000000
 20
      -45.000000
 30
        0.000000
 11
      223.000000
 21
      -37.250000
 31
        0.000000
  0
LINE
  8
1
  6
CONTINUOUS
 10
      200.000000
 20
      -45.000000
 30
        0.000000
 11
      200.000000
 21
       45.000000
 31
        0.000000
  0
LINE
  8
1
  6
CONTINUOUS
 10
      213.000000
 20
      -45.500000
 30
        0.000000
 11
      213.000000
 21
       45.500000
 31
        0.000000
  0
LINE
  8
1
  6
CONTINUOUS
 10
      200.000000
 20
      -45.000000
 30
        0.000000
 11
      200.500000
 21
      -45.500000
 31
        0.000000
  0
LINE
  8
1
  6
CONTINUOUS
 10
      223.000000
 20
       37.250000
 30
        0.000000
 11
      223.000000
 21
       45.000000
 31
        0.000000
  0
LINE
  8
1
  6
CONTINUOUS
 10
      223.000000
 20
       45.000000
 30
        0.000000
 11
      222.500000
 21
       45.500000
 31
        0.000000
  0
LINE
  8
1
  6
CONTINUOUS
 10
      222.500000
 20
       45.500000
 30
        0.000000
 11
      200.500000
 21
       45.500000
 31
        0.000000
  0
LINE
  8
1
  6
CONTINUOUS
 10
      200.500000
 20
       45.500000
 30
        0.000000
 11
      200.000000
 21
       45.000000
 31
        0.000000
  0
CIRCLE
  8
1
  6
CONTINUOUS
 10
      207.000000
 20
      -40.500000
 30
        0.000000
 40
        1.600000
  0
CIRCLE
  8
1
  6
CONTINUOUS
 10
      207.000000
 20
       40.500000
 30
        0.000000
 40
        1.600000
  0
LINE
  8
1
  6
CONTINUOUS
 10
      211.400000
 20
      -71.755994
 30
        0.000000
 11
      200.000000
 21
      -71.755994
 31
        0.000000
  0
LINE
  8
1
  6
CONTINUOUS
 10
      200.000000
 20
      -71.755994
 30
        0.000000
 11
      200.000000
 21
      -73.355994
 31
        0.000000
  0
LINE
  8
1
  6
CONTINUOUS
 10
      211.400000
 20
      -73.355994
 30
        0.000000
 11
      200.000000
 21
      -73.355994
 31
        0.000000
  0
LINE
  8
1
  6
CONTINUOUS
 10
      211.400000
 20
      -73.355994
 30
        0.000000
 11
      211.400000
 21
      -75.855994
 31
        0.000000
  0
ARC
  8
1
  6
CONTINUOUS
 10
      213.000000
 20
      -75.855994
 30
        0.000000
 40
        1.600000
 50
      179.999990
 51
      270.000000
  0
LINE
  8
1
  6
CONTINUOUS
 10
      213.000000
 20
      -75.855994
 30
        0.000000
 11
      213.000000
 21
      -73.355994
 31
        0.000000
  0
ARC
  8
1
  6
CONTINUOUS
 10
      211.400000
 20
      -73.355994
 30
        0.000000
 40
        1.600000
 50
        0.000000
 51
       90.000000
  0
LINE
  8
1
  6
CONTINUOUS
 10
      223.000000
 20
      -37.250000
 30
        0.000000
 11
      218.000000
 21
      -37.250000
 31
        0.000000
  0
ARC
  8
1
  6
CONTINUOUS
 10
      218.000000
 20
      -35.000000
 30
        0.000000
 40
        2.250000
 50
       90.000000
 51
      270.000000
  0
LINE
  8
1
  6
CONTINUOUS
 10
      223.000000
 20
      -32.750000
 30
        0.000000
 11
      218.000000
 21
      -32.750000
 31
        0.000000
  0
LINE
  8
1
  6
CONTINUOUS
 10
      223.000000
 20
      -32.750000
 30
        0.000000
 11
      223.000000
 21
       32.750000
 31
        0.000000
  0
LINE
  8
1
  6
CONTINUOUS
 10
      223.000000
 20
       32.750000
 30
        0.000000
 11
      218.000000
 21
       32.750000
 31
        0.000000
  0
ARC
  8
1
  6
CONTINUOUS
 10
      218.000000
 20
       35.000000
 30
        0.000000
 40
        2.250000
 50
       90.000000
 51
      270.000000
  0
LINE
  8
1
  6
CONTINUOUS
 10
      223.000000
 20
       37.250000
 30
        0.000000
 11
      218.000000
 21
       37.250000
 31
        0.000000
  0
LINE
  8
1
  6
CONTINUOUS
 10
       73.990000
 20
       37.250000
 30
        0.000000
 11
       68.990000
 21
       37.250000
 31
        0.000000
  0
ARC
  8
1
  6
CONTINUOUS
 10
       68.990000
 20
       35.000000
 30
        0.000000
 40
        2.250000
 50
       90.000000
 51
      270.000000
  0
LINE
  8
1
  6
CONTINUOUS
 10
       73.990000
 20
       32.750000
 30
        0.000000
 11
       68.990000
 21
       32.750000
 31
        0.000000
  0
LINE
  8
1
  6
CONTINUOUS
 10
       73.990000
 20
      -32.750000
 30
        0.000000
 11
       73.990000
 21
       32.750000
 31
        0.000000
  0
LINE
  8
1
  6
CONTINUOUS
 10
       73.990000
 20
      -32.750000
 30
        0.000000
 11
       68.990000
 21
      -32.750000
 31
        0.000000
  0
ARC
  8
1
  6
CONTINUOUS
 10
       68.990000
 20
      -35.000000
 30
        0.000000
 40
        2.250000
 50
       90.000000
 51
      270.000000
  0
LINE
  8
1
  6
CONTINUOUS
 10
       73.990000
 20
      -37.250000
 30
        0.000000
 11
       68.990000
 21
      -37.250000
 31
        0.000000
  0
LINE
  8
1
  6
CONTINUOUS
 10
       73.990000
 20
       45.000000
 30
        0.000000
 11
       73.490000
 21
       45.500000
 31
        0.000000
  0
LINE
  8
1
  6
CONTINUOUS
 10
       73.990000
 20
       37.250000
 30
        0.000000
 11
       73.990000
 21
       45.000000
 31
        0.000000
  0
LINE
  8
1
  6
CONTINUOUS
 10
       73.990000
 20
      -45.000000
 30
        0.000000
 11
       73.990000
 21
      -37.250000
 31
        0.000000
  0
LINE
  8
1
  6
CONTINUOUS
 10
       73.490000
 20
      -45.500000
 30
        0.000000
 11
       73.990000
 21
      -45.000000
 31
        0.000000
  0
LINE
  8
1
  6
CONTINUOUS
 10
       73.490000
 20
       45.500000
 30
        0.000000
 11
       64.312876
 21
       45.500000
 31
        0.000000
  0
LINE
  8
1
  6
CONTINUOUS
 10
       73.490000
 20
      -45.500000
 30
        0.000000
 11
       64.312876
 21
      -45.500000
 31
        0.000000
  0
LINE
  8
1
  6
CONTINUOUS
 10
      -73.510000
 20
      -45.500000
 30
        0.000000
 11
      -64.332876
 21
      -45.500000
 31
        0.000000
  0
LINE
  8
1
  6
CONTINUOUS
 10
      -73.510000
 20
       45.500000
 30
        0.000000
 11
      -64.332876
 21
       45.500000
 31
        0.000000
  0
LINE
  8
1
  6
CONTINUOUS
 10
      -73.510000
 20
      -45.500000
 30
        0.000000
 11
      -74.010000
 21
      -45.000000
 31
        0.000000
  0
LINE
  8
1
  6
CONTINUOUS
 10
      -74.010000
 20
      -45.000000
 30
        0.000000
 11
      -74.010000
 21
      -37.250000
 31
        0.000000
  0
LINE
  8
1
  6
CONTINUOUS
 10
      -74.010000
 20
       37.250000
 30
        0.000000
 11
      -74.010000
 21
       45.000000
 31
        0.000000
  0
LINE
  8
1
  6
CONTINUOUS
 10
      -74.010000
 20
       45.000000
 30
        0.000000
 11
      -73.510000
 21
       45.500000
 31
        0.000000
  0
LINE
  8
1
  6
CONTINUOUS
 10
      -74.010000
 20
      -37.250000
 30
        0.000000
 11
      -69.010000
 21
      -37.250000
 31
        0.000000
  0
ARC
  8
1
  6
CONTINUOUS
 10
      -69.010000
 20
      -35.000000
 30
        0.000000
 40
        2.250000
 50
      270.000000
 51
      450.000000
  0
LINE
  8
1
  6
CONTINUOUS
 10
      -74.010000
 20
      -32.750000
 30
        0.000000
 11
      -69.010000
 21
      -32.750000
 31
        0.000000
  0
LINE
  8
1
  6
CONTINUOUS
 10
      -74.010000
 20
      -32.750000
 30
        0.000000
 11
      -74.010000
 21
       32.750000
 31
        0.000000
  0
LINE
  8
1
  6
CONTINUOUS
 10
      -74.010000
 20
       32.750000
 30
        0.000000
 11
      -69.010000
 21
       32.750000
 31
        0.000000
  0
ARC
  8
1
  6
CONTINUOUS
 10
      -69.010000
 20
       35.000000
 30
        0.000000
 40
        2.250000
 50
      270.000000
 51
      450.000000
  0
LINE
  8
1
  6
CONTINUOUS
 10
      -74.010000
 20
       37.250000
 30
        0.000000
 11
      -69.010000
 21
       37.250000
 31
        0.000000
  0
ARC
  8
1
  6
CONTINUOUS
 10
       62.390000
 20
     -118.100000
 30
        0.000000
 40
        1.600000
 50
        0.000000
 51
       90.000000
  0
LINE
  8
1
  6
CONTINUOUS
 10
       63.990000
 20
     -120.600000
 30
        0.000000
 11
       63.990000
 21
     -118.100000
 31
        0.000000
  0
ARC
  8
1
  6
CONTINUOUS
 10
       63.990000
 20
     -120.600000
 30
        0.000000
 40
        1.600000
 50
      179.999990
 51
      270.000000
  0
LINE
  8
1
  6
CONTINUOUS
 10
       62.390000
 20
     -118.100000
 30
        0.000000
 11
       62.390000
 21
     -120.600000
 31
        0.000000
  0
LINE
  8
1
  6
CONTINUOUS
 10
       62.390000
 20
     -118.100000
 30
        0.000000
 11
       50.990000
 21
     -118.100000
 31
        0.000000
  0
LINE
  8
1
  6
CONTINUOUS
 10
       50.990000
 20
     -116.500000
 30
        0.000000
 11
       50.990000
 21
     -118.100000
 31
        0.000000
  0
LINE
  8
1
  6
CONTINUOUS
 10
       73.990000
 20
     -120.600000
 30
        0.000000
 11
       63.990000
 21
     -120.600000
 31
        0.000000
  0
LINE
  8
1
  6
CONTINUOUS
 10
       73.990000
 20
     -120.600000
 30
        0.000000
 11
       73.990000
 21
     -122.200000
 31
        0.000000
  0
LINE
  8
1
  6
CONTINUOUS
 10
       73.990000
 20
     -122.200000
 30
        0.000000
 11
       63.990000
 21
     -122.200000
 31
        0.000000
  0
LINE
  8
1
  6
CONTINUOUS
 10
      -74.010000
 20
     -120.600000
 30
        0.000000
 11
      -74.010000
 21
     -122.200000
 31
        0.000000
  0
LINE
  8
1
  6
CONTINUOUS
 10
      -74.010000
 20
     -120.600000
 30
        0.000000
 11
      -64.010000
 21
     -120.600000
 31
        0.000000
  0
LINE
  8
1
  6
CONTINUOUS
 10
      -51.010000
 20
     -116.500000
 30
        0.000000
 11
      -51.010000
 21
     -118.100000
 31
        0.000000
  0
LINE
  8
1
  6
CONTINUOUS
 10
      -62.410000
 20
     -118.100000
 30
        0.000000
 11
      -51.010000
 21
     -118.100000
 31
        0.000000
  0
LINE
  8
1
  6
CONTINUOUS
 10
      -62.410000
 20
     -118.100000
 30
        0.000000
 11
      -62.410000
 21
     -120.600000
 31
        0.000000
  0
ARC
  8
1
  6
CONTINUOUS
 10
      -64.010000
 20
     -120.600000
 30
        0.000000
 40
        1.600000
 50
      270.000000
 51
      360.000000
  0
LINE
  8
1
  6
CONTINUOUS
 10
      -64.010000
 20
     -120.600000
 30
        0.000000
 11
      -64.010000
 21
     -118.100000
 31
        0.000000
  0
ARC
  8
1
  6
CONTINUOUS
 10
      -62.410000
 20
     -118.100000
 30
        0.000000
 40
        1.600000
 50
       90.000000
 51
      179.999990
  0
LINE
  8
1
  6
CONTINUOUS
 10
      -74.010000
 20
     -122.200000
 30
        0.000000
 11
      -64.010000
 21
     -122.200000
 31
        0.000000
  0
LINE
  8
1
  6
CONTINUOUS
 10
      130.690000
 20
      -45.500000
 30
        0.000000
 11
      124.990000
 21
      -45.500000
 31
        0.000000
  0
LINE
  8
1
  6
CONTINUOUS
 10
      130.690000
 20
       45.500000
 30
        0.000000
 11
      124.990000
 21
       45.500000
 31
        0.000000
  0
LINE
  8
1
  6
CONTINUOUS
 10
      130.690000
 20
      -32.750000
 30
        0.000000
 11
      129.090000
 21
      -32.750000
 31
        0.000000
  0
LINE
  8
1
  6
CONTINUOUS
 10
      130.690000
 20
      -37.250000
 30
        0.000000
 11
      129.090000
 21
      -37.250000
 31
        0.000000
  0
LINE
  8
1
  6
CONTINUOUS
 10
      130.690000
 20
       37.250000
 30
        0.000000
 11
      129.090000
 21
       37.250000
 31
        0.000000
  0
LINE
  8
1
  6
CONTINUOUS
 10
      130.690000
 20
       32.750000
 30
        0.000000
 11
      129.090000
 21
       32.750000
 31
        0.000000
  0
LINE
  8
1
  6
CONTINUOUS
 10
      130.690000
 20
      -45.500000
 30
        0.000000
 11
      130.690000
 21
       45.500000
 31
        0.000000
  0
LINE
  8
1
  6
CONTINUOUS
 10
      129.090000
 20
      -45.500000
 30
        0.000000
 11
      129.090000
 21
       45.500000
 31
        0.000000
  0
LINE
  8
1
  6
CONTINUOUS
 10
      -74.010000
 20
      104.200000
 30
        0.000000
 11
      -64.010000
 21
      104.200000
 31
        0.000000
  0
ARC
  8
1
  6
CONTINUOUS
 10
      -62.410000
 20
      100.100000
 30
        0.000000
 40
        1.600000
 50
      179.999990
 51
      270.000000
  0
LINE
  8
1
  6
CONTINUOUS
 10
      -64.010000
 20
      102.600000
 30
        0.000000
 11
      -64.010000
 21
      100.100000
 31
        0.000000
  0
ARC
  8
1
  6
CONTINUOUS
 10
      -64.010000
 20
      102.600000
 30
        0.000000
 40
        1.600000
 50
        0.000000
 51
       90.000000
  0
LINE
  8
1
  6
CONTINUOUS
 10
      -62.410000
 20
      100.100000
 30
        0.000000
 11
      -62.410000
 21
      102.600000
 31
        0.000000
  0
LINE
  8
1
  6
CONTINUOUS
 10
      -62.410000
 20
      100.100000
 30
        0.000000
 11
      -51.010000
 21
      100.100000
 31
        0.000000
  0
LINE
  8
1
  6
CONTINUOUS
 10
      -51.010000
 20
       98.500000
 30
        0.000000
 11
      -51.010000
 21
      100.100000
 31
        0.000000
  0
LINE
  8
1
  6
CONTINUOUS
 10
      -74.010000
 20
      102.600000
 30
        0.000000
 11
      -64.010000
 21
      102.600000
 31
        0.000000
  0
LINE
  8
1
  6
CONTINUOUS
 10
      -74.010000
 20
      102.600000
 30
        0.000000
 11
      -74.010000
 21
      104.200000
 31
        0.000000
  0
LINE
  8
1
  6
CONTINUOUS
 10
       73.990000
 20
      104.200000
 30
        0.000000
 11
       63.990000
 21
      104.200000
 31
        0.000000
  0
LINE
  8
1
  6
CONTINUOUS
 10
       73.990000
 20
      102.600000
 30
        0.000000
 11
       73.990000
 21
      104.200000
 31
        0.000000
  0
LINE
  8
1
  6
CONTINUOUS
 10
       73.990000
 20
      102.600000
 30
        0.000000
 11
       63.990000
 21
      102.600000
 31
        0.000000
  0
LINE
  8
1
  6
CONTINUOUS
 10
       50.990000
 20
       98.500000
 30
        0.000000
 11
       50.990000
 21
      100.100000
 31
        0.000000
  0
LINE
  8
1
  6
CONTINUOUS
 10
       62.390000
 20
      100.100000
 30
        0.000000
 11
       50.990000
 21
      100.100000
 31
        0.000000
  0
LINE
  8
1
  6
CONTINUOUS
 10
       62.390000
 20
      100.100000
 30
        0.000000
 11
       62.390000
 21
      102.600000
 31
        0.000000
  0
ARC
  8
1
  6
CONTINUOUS
 10
       63.990000
 20
      102.600000
 30
        0.000000
 40
        1.600000
 50
       90.000000
 51
      179.999990
  0
LINE
  8
1
  6
CONTINUOUS
 10
       63.990000
 20
      102.600000
 30
        0.000000
 11
       63.990000
 21
      100.100000
 31
        0.000000
  0
ARC
  8
1
  6
CONTINUOUS
 10
       62.390000
 20
      100.100000
 30
        0.000000
 40
        1.600000
 50
      270.000000
 51
      360.000000
  0
ENDSEC
  0
EOF
